  0
SECTION
  2
HEADER
  9
$ACADVER
  1
AC1014
  9
$ACADMAINTVER
 70
     9
  9
$DWGCODEPAGE
  3
ANSI_1252
  9
$INSBASE
 10
0.0
 20
0.0
 30
0.0
  9
$EXTMIN
 10
0.7730404649856301
 20
0.025
 30
0.0
  9
$EXTMAX
 10
24.72304046498563
 20
39.975
 30
0.0
  9
$LIMMIN
 10
0.0
 20
0.0
  9
$LIMMAX
 10
12.0
 20
9.0
  9
$ORTHOMODE
 70
     0
  9
$REGENMODE
 70
     1
  9
$FILLMODE
 70
     1
  9
$QTEXTMODE
 70
     0
  9
$MIRRTEXT
 70
     1
  9
$DRAGMODE
 70
     2
  9
$LTSCALE
 40
0.5
  9
$OSMODE
 70
    23
  9
$ATTMODE
 70
     1
  9
$TEXTSIZE
 40
0.12
  9
$TRACEWID
 40
0.05
  9
$TEXTSTYLE
  7
ONSHAPE-STANDARD
  9
$CLAYER
  8
0
  9
$CELTYPE
  6
BYLAYER
  9
$CECOLOR
 62
   256
  9
$CELTSCALE
 40
1.0
  9
$DELOBJ
 70
     1
  9
$DISPSILH
 70
     0
  9
$DIMSCALE
 40
1.0
  9
$DIMASZ
 40
0.18
  9
$DIMEXO
 40
0.0625
  9
$DIMDLI
 40
0.38
  9
$DIMRND
 40
0.0
  9
$DIMDLE
 40
0.0
  9
$DIMEXE
 40
0.08
  9
$DIMTP
 40
0.0
  9
$DIMTM
 40
0.0
  9
$DIMTXT
 40
0.12
  9
$DIMCEN
 40
0.09
  9
$DIMTSZ
 40
0.0
  9
$DIMTOL
 70
     0
  9
$DIMLIM
 70
     0
  9
$DIMTIH
 70
     1
  9
$DIMTOH
 70
     1
  9
$DIMSE1
 70
     0
  9
$DIMSE2
 70
     0
  9
$DIMTAD
 70
     0
  9
$DIMZIN
 70
     7
  9
$DIMBLK
  1

  9
$DIMASO
 70
     1
  9
$DIMSHO
 70
     1
  9
$DIMPOST
  1

  9
$DIMAPOST
  1

  9
$DIMALT
 70
     0
  9
$DIMALTD
 70
     2
  9
$DIMALTF
 40
25.4
  9
$DIMLFAC
 40
1.0
  9
$DIMTOFL
 70
     0
  9
$DIMTVP
 40
0.0
  9
$DIMTIX
 70
     0
  9
$DIMSOXD
 70
     0
  9
$DIMSAH
 70
     0
  9
$DIMBLK1
  1

  9
$DIMBLK2
  1

  9
$DIMSTYLE
  2
ONSHAPE-STANDARD
  9
$DIMCLRD
 70
     7
  9
$DIMCLRE
 70
     7
  9
$DIMCLRT
 70
     7
  9
$DIMTFAC
 40
1.0
  9
$DIMGAP
 40
0.09
  9
$DIMJUST
 70
     0
  9
$DIMSD1
 70
     0
  9
$DIMSD2
 70
     0
  9
$DIMTOLJ
 70
     1
  9
$DIMTZIN
 70
     7
  9
$DIMALTZ
 70
     7
  9
$DIMALTTZ
 70
     0
  9
$DIMFIT
 70
     3
  9
$DIMUPT
 70
     1
  9
$DIMUNIT
 70
     2
  9
$DIMDEC
 70
     3
  9
$DIMTDEC
 70
     3
  9
$DIMALTU
 70
     2
  9
$DIMALTTD
 70
     2
  9
$DIMTXSTY
  7
ONSHAPE-STANDARD-DIMENSION
  9
$DIMAUNIT
 70
     0
  9
$LUNITS
 70
     2
  9
$LUPREC
 70
     4
  9
$SKETCHINC
 40
0.1
  9
$FILLETRAD
 40
0.5
  9
$AUNITS
 70
     0
  9
$AUPREC
 70
     0
  9
$MENU
  1
.
  9
$ELEVATION
 40
0.0
  9
$PELEVATION
 40
0.0
  9
$THICKNESS
 40
0.0
  9
$LIMCHECK
 70
     0
  9
$CHAMFERA
 40
0.0
  9
$CHAMFERB
 40
0.0
  9
$CHAMFERC
 40
0.0
  9
$CHAMFERD
 40
0.0
  9
$SKPOLY
 70
     0
  9
$TDCREATE
 40
2460300.841035174
  9
$TDUPDATE
 40
2460300.841035822
  9
$TDINDWG
 40
0.0
  9
$TDUSRTIMER
 40
0.0
  9
$USRTIMER
 70
     1
  9
$ANGBASE
 50
0.0
  9
$ANGDIR
 70
     0
  9
$PDMODE
 70
    33
  9
$PDSIZE
 40
0.0393700787401575
  9
$PLINEWID
 40
0.0
  9
$COORDS
 70
     1
  9
$SPLFRAME
 70
     0
  9
$SPLINETYPE
 70
     6
  9
$SPLINESEGS
 70
     8
  9
$ATTDIA
 70
     0
  9
$ATTREQ
 70
     1
  9
$HANDLING
 70
     1
  9
$HANDSEED
  5
28E
  9
$SURFTAB1
 70
     6
  9
$SURFTAB2
 70
     6
  9
$SURFTYPE
 70
     6
  9
$SURFU
 70
     6
  9
$SURFV
 70
     6
  9
$UCSNAME
  2

  9
$UCSORG
 10
0.0
 20
0.0
 30
0.0
  9
$UCSXDIR
 10
1.0
 20
0.0
 30
0.0
  9
$UCSYDIR
 10
0.0
 20
1.0
 30
0.0
  9
$PUCSNAME
  2

  9
$PUCSORG
 10
0.0
 20
0.0
 30
0.0
  9
$PUCSXDIR
 10
1.0
 20
0.0
 30
0.0
  9
$PUCSYDIR
 10
0.0
 20
1.0
 30
0.0
  9
$USERI1
 70
     0
  9
$USERI2
 70
     0
  9
$USERI3
 70
     0
  9
$USERI4
 70
     0
  9
$USERI5
 70
     0
  9
$USERR1
 40
0.0
  9
$USERR2
 40
0.0
  9
$USERR3
 40
0.0
  9
$USERR4
 40
0.0
  9
$USERR5
 40
0.0
  9
$WORLDVIEW
 70
     1
  9
$SHADEDGE
 70
     3
  9
$SHADEDIF
 70
    70
  9
$TILEMODE
 70
     1
  9
$MAXACTVP
 70
    64
  9
$PINSBASE
 10
0.0
 20
0.0
 30
0.0
  9
$PLIMCHECK
 70
     0
  9
$PEXTMIN
 10
1.000000000000000E+20
 20
1.000000000000000E+20
 30
1.000000000000000E+20
  9
$PEXTMAX
 10
-1.000000000000000E+20
 20
-1.000000000000000E+20
 30
-1.000000000000000E+20
  9
$PLIMMIN
 10
0.0
 20
0.0
  9
$PLIMMAX
 10
12.0
 20
9.0
  9
$UNITMODE
 70
     0
  9
$VISRETAIN
 70
     1
  9
$PLINEGEN
 70
     0
  9
$PSLTSCALE
 70
     1
  9
$TREEDEPTH
 70
  3020
  9
$PICKSTYLE
 70
     1
  9
$CMLSTYLE
  2
STANDARD
  9
$CMLJUST
 70
     0
  9
$CMLSCALE
 40
1.0
  9
$PROXYGRAPHICS
 70
     1
  9
$MEASUREMENT
 70
     0
  0
ENDSEC
  0
SECTION
  2
CLASSES
  0
CLASS
  1
ACDBDICTIONARYWDFLT
  2
AcDbDictionaryWithDefault
  3
ObjectDBX Classes
 90
        0
280
     0
281
     0
  0
CLASS
  1
VISUALSTYLE
  2
AcDbVisualStyle
  3
ObjectDBX Classes
 90
     4095
280
     0
281
     0
  0
CLASS
  1
MATERIAL
  2
AcDbMaterial
  3
ObjectDBX Classes
 90
     1153
280
     0
281
     0
  0
CLASS
  1
SCALE
  2
AcDbScale
  3
ObjectDBX Classes
 90
     1153
280
     0
281
     0
  0
CLASS
  1
TABLESTYLE
  2
AcDbTableStyle
  3
ObjectDBX Classes
 90
     4095
280
     0
281
     0
  0
CLASS
  1
MLEADERSTYLE
  2
AcDbMLeaderStyle
  3
ACDB_MLEADERSTYLE_CLASS
 90
     4095
280
     0
281
     0
  0
CLASS
  1
SUN
  2
AcDbSun
  3
SCENEOE
 90
     1153
280
     0
281
     0
  0
CLASS
  1
DICTIONARYVAR
  2
AcDbDictionaryVar
  3
ObjectDBX Classes
 90
        0
280
     0
281
     0
  0
CLASS
  1
FIELD
  2
AcDbField
  3
ObjectDBX Classes
 90
     1152
280
     0
281
     0
  0
CLASS
  1
FIELDLIST
  2
AcDbFieldList
  3
ObjectDBX Classes
 90
     1152
280
     0
281
     0
  0
CLASS
  1
XRECORD
  2
AcDbXrecord
  3
ObjectDBX Classes
 90
        0
280
     0
281
     0
  0
CLASS
  1
LWPOLYLINE
  2
AcDbPolyline
  3
ObjectDBX Classes
 90
        0
280
     0
281
     1
  0
CLASS
  1
HATCH
  2
AcDbHatch
  3
ObjectDBX Classes
 90
        0
280
     0
281
     1
  0
CLASS
  1
ACDBPLACEHOLDER
  2
AcDbPlaceHolder
  3
ObjectDBX Classes
 90
        0
280
     0
281
     0
  0
CLASS
  1
LAYOUT
  2
AcDbLayout
  3
ObjectDBX Classes
 90
        0
280
     0
281
     0
  0
ENDSEC
  0
SECTION
  2
TABLES
  0
TABLE
  2
VPORT
  5
8
102
{ACAD_XDICTIONARY
360
283
102
}
330
0
100
AcDbSymbolTable
 70
     1
  0
VPORT
  5
29
330
8
100
AcDbSymbolTableRecord
100
AcDbViewportTableRecord
  2
*ACTIVE
 70
     0
 10
0.0
 20
0.0
 11
1.0
 21
1.0
 12
12.74804046498563
 22
20.18893051771117
 13
0.0
 23
0.0
 14
0.5
 24
0.5
 15
0.5
 25
0.5
 16
0.0
 26
0.0
 36
1.0
 17
0.0
 27
0.0
 37
0.0
 40
41.13441825613079
 41
0.5938822289375402
 42
50.0
 43
0.0
 44
0.0
 50
0.0
 51
0.0
 71
     0
 72
   100
 73
     1
 74
     3
 75
     0
 76
     0
 77
     0
 78
     0
  0
ENDTAB
  0
TABLE
  2
LTYPE
  5
5
330
0
100
AcDbSymbolTable
 70
     1
  0
LTYPE
  5
14
330
5
100
AcDbSymbolTableRecord
100
AcDbLinetypeTableRecord
  2
BYBLOCK
 70
     0
  3

 72
    65
 73
     0
 40
0.0
  0
LTYPE
  5
15
330
5
100
AcDbSymbolTableRecord
100
AcDbLinetypeTableRecord
  2
BYLAYER
 70
     0
  3

 72
    65
 73
     0
 40
0.0
  0
LTYPE
  5
16
330
5
100
AcDbSymbolTableRecord
100
AcDbLinetypeTableRecord
  2
CONTINUOUS
 70
     0
  3
Solid line
 72
    65
 73
     0
 40
0.0
  0
ENDTAB
  0
TABLE
  2
LAYER
  5
2
330
0
100
AcDbSymbolTable
 70
     6
  0
LAYER
  5
10
330
2
100
AcDbSymbolTableRecord
100
AcDbLayerTableRecord
  2
0
 70
     0
 62
     7
  6
CONTINUOUS
  0
LAYER
  5
73
330
2
100
AcDbSymbolTableRecord
100
AcDbLayerTableRecord
  2
VISIBLE
 70
     0
 62
     7
  6
CONTINUOUS
  0
LAYER
  5
14A
330
2
100
AcDbSymbolTableRecord
100
AcDbLayerTableRecord
  2
TITLE_BLOCK
 70
     0
 62
     7
  6
CONTINUOUS
  0
LAYER
  5
1E3
330
2
100
AcDbSymbolTableRecord
100
AcDbLayerTableRecord
  2
BORDER_FRAME
 70
     0
 62
     7
  6
CONTINUOUS
  0
LAYER
  5
1E8
330
2
100
AcDbSymbolTableRecord
100
AcDbLayerTableRecord
  2
BORDER_ZONES
 70
     0
 62
     7
  6
CONTINUOUS
  0
LAYER
  5
207
330
2
100
AcDbSymbolTableRecord
100
AcDbLayerTableRecord
  2
ANNOTATION_TEXT
 70
     0
 62
     7
  6
CONTINUOUS
  0
ENDTAB
  0
TABLE
  2
STYLE
  5
3
330
0
100
AcDbSymbolTable
 70
    33
  0
STYLE
  5
11
330
3
100
AcDbSymbolTableRecord
100
AcDbTextStyleTableRecord
  2
STANDARD
 70
     0
 40
0.0
 41
1.0
 50
0.0
 71
     0
 42
0.12
  3
txt
  4

  0
STYLE
  5
70
330
3
100
AcDbSymbolTableRecord
100
AcDbTextStyleTableRecord
  2
ONSHAPE-STANDARD
 70
     0
 40
0.0
 41
1.0
 50
0.0
 71
     0
 42
0.12
  3
NotoSans-Regular.ttf
  4

1001
ACAD
1000
Noto Sans
1071
        0
  0
STYLE
  5
72
330
3
100
AcDbSymbolTableRecord
100
AcDbTextStyleTableRecord
  2
ONSHAPE-STANDARD-DIMENSION
 70
     0
 40
0.0
 41
1.0
 50
0.0
 71
     0
 42
0.12
  3

  4

1001
ACAD
1000
Noto Sans
1071
        0
  0
STYLE
  5
180
330
3
100
AcDbSymbolTableRecord
100
AcDbTextStyleTableRecord
  2
ONSHAPE-STANDARD-FIELDS
 70
     0
 40
0.0
 41
1.0
 50
0.0
 71
     0
 42
0.12
  3

  4

1001
ACAD
1000
Noto Sans
1071
        0
  0
STYLE
  5
209
330
3
100
AcDbSymbolTableRecord
100
AcDbTextStyleTableRecord
  2
ONSHAPE-STANDARD-VIEW-LABE
 70
     0
 40
0.12
 41
1.0
 50
0.0
 71
     0
 42
0.12
  3
NotoSans-Regular.ttf
  4

1001
ACAD
1000
Noto Sans
1071
        0
  0
STYLE
  5
215
330
3
100
AcDbSymbolTableRecord
100
AcDbTextStyleTableRecord
  2
ONSHAPE-STANDARD-BOLD
 70
     0
 40
0.0
 41
1.0
 50
0.0
 71
     0
 42
0.12
  3
NotoSans-Bold.ttf
  4

1001
ACAD
1000
Noto Sans
1071
 33554432
  0
STYLE
  5
216
330
3
100
AcDbSymbolTableRecord
100
AcDbTextStyleTableRecord
  2
ONSHAPE-STANDARD-TCFIELDS
 70
     0
 40
0.0
 41
1.0
 50
0.0
 71
     0
 42
0.12
  3
NotoSansTC-Regular.otf
  4

1001
ACAD
1000
Noto Sans TC
1071
        0
  0
STYLE
  5
217
330
3
100
AcDbSymbolTableRecord
100
AcDbTextStyleTableRecord
  2
ONSHAPE-STANDARD-SCFIELDS
 70
     0
 40
0.0
 41
1.0
 50
0.0
 71
     0
 42
0.12
  3
NotoSansSC-Regular.otf
  4

1001
ACAD
1000
Noto Sans SC
1071
        0
  0
STYLE
  5
218
330
3
100
AcDbSymbolTableRecord
100
AcDbTextStyleTableRecord
  2
ONSHAPE-STANDARD-KOREANFIE
 70
     0
 40
0.0
 41
1.0
 50
0.0
 71
     0
 42
0.12
  3
NotoSansKR-Regular.otf
  4

1001
ACAD
1000
Noto Sans KR
1071
        0
  0
STYLE
  5
219
330
3
100
AcDbSymbolTableRecord
100
AcDbTextStyleTableRecord
  2
ONSHAPE-STANDARD-JAPANESEF
 70
     0
 40
0.0
 41
1.0
 50
0.0
 71
     0
 42
0.12
  3
NotoSansJP-Regular.otf
  4

1001
ACAD
1000
Noto Sans JP
1071
        0
  0
STYLE
  5
21B
330
3
100
AcDbSymbolTableRecord
100
AcDbTextStyleTableRecord
  2
TTFSTYLE
 70
     0
 40
0.0
 41
1.0
 50
0.0
 71
     0
 42
0.12
  3
Verdana.ttf
  4

1001
ACAD
1000
Verdana
1071
       34
  0
STYLE
  5
21C
330
3
100
AcDbSymbolTableRecord
100
AcDbTextStyleTableRecord
  2
ONSHAPE-STANDARD-GTOLERANC
 70
     0
 40
0.0
 41
1.0
 50
0.0
 71
     0
 42
0.12
  3

  4

1001
ACAD
1000
Noto Sans
1071
        0
  0
STYLE
  5
21D
330
3
100
AcDbSymbolTableRecord
100
AcDbTextStyleTableRecord
  2
ONSHAPE-STANDARD-TABLE-DAT
 70
     0
 40
0.0
 41
1.0
 50
0.0
 71
     0
 42
0.12
  3
NotoSans-Regular.ttf
  4

1001
ACAD
1000
Noto Sans
1071
        0
  0
STYLE
  5
21E
330
3
100
AcDbSymbolTableRecord
100
AcDbTextStyleTableRecord
  2
ONSHAPE-STANDARD-TABLE-TIT
 70
     0
 40
0.0
 41
1.0
 50
0.0
 71
     0
 42
0.12
  3
NotoSans-Bold.ttf
  4

1001
ACAD
1000
Noto Sans
1071
 33554432
  0
STYLE
  5
21F
330
3
100
AcDbSymbolTableRecord
100
AcDbTextStyleTableRecord
  2
ONSHAPE-STANDARD-TABLE-HEA
 70
     0
 40
0.0
 41
1.0
 50
0.0
 71
     0
 42
0.12
  3
NotoSans-Bold.ttf
  4

1001
ACAD
1000
Noto Sans
1071
 33554432
  0
STYLE
  5
220
330
3
100
AcDbSymbolTableRecord
100
AcDbTextStyleTableRecord
  2
ONSHAPE-STANDARD-BOMTABLE-
 70
     0
 40
0.0
 41
1.0
 50
0.0
 71
     0
 42
0.12
  3
NotoSans-Regular.ttf
  4

1001
ACAD
1000
Noto Sans
1071
        0
  0
STYLE
  5
221
330
3
100
AcDbSymbolTableRecord
100
AcDbTextStyleTableRecord
  2
ONSHAPE-STANDARD-BOMTABLE0
 70
     0
 40
0.0
 41
1.0
 50
0.0
 71
     0
 42
0.12
  3
NotoSans-Bold.ttf
  4

1001
ACAD
1000
Noto Sans
1071
 33554432
  0
STYLE
  5
222
330
3
100
AcDbSymbolTableRecord
100
AcDbTextStyleTableRecord
  2
ONSHAPE-STANDARD-BOMTABLE1
 70
     0
 40
0.0
 41
1.0
 50
0.0
 71
     0
 42
0.12
  3
NotoSans-Bold.ttf
  4

1001
ACAD
1000
Noto Sans
1071
 33554432
  0
STYLE
  5
223
330
3
100
AcDbSymbolTableRecord
100
AcDbTextStyleTableRecord
  2
ONSHAPE-STANDARD-NOTESTYLE
 70
     0
 40
0.12
 41
1.0
 50
0.0
 71
     0
 42
0.12
  3
Noto Sans
  4

1001
ACAD
1000
Noto Sans
1071
        0
  0
STYLE
  5
224
330
3
100
AcDbSymbolTableRecord
100
AcDbTextStyleTableRecord
  2
ONSHAPE-STANDARD-DATUM-DIM
 70
     0
 40
0.12
 41
1.0
 50
0.0
 71
     0
 42
0.12
  3
Noto Sans
  4

1001
ACAD
1000
Noto Sans
1071
        0
  0
STYLE
  5
225
330
3
100
AcDbSymbolTableRecord
100
AcDbTextStyleTableRecord
  2
ONSHAPE-DETAIL-VIEW-LEADER
 70
     0
 40
0.12
 41
1.0
 50
0.0
 71
     0
 42
0.12
  3
Noto Sans
  4

1001
ACAD
1000
Noto Sans
1071
        0
  0
STYLE
  5
226
330
3
100
AcDbSymbolTableRecord
100
AcDbTextStyleTableRecord
  2
ONSHAPE-STANDARD-HOLE-CALL
 70
     0
 40
0.12
 41
1.0
 50
0.0
 71
     0
 42
0.12
  3
Noto Sans
  4

1001
ACAD
1000
Noto Sans
1071
        0
  0
STYLE
  5
227
330
3
100
AcDbSymbolTableRecord
100
AcDbTextStyleTableRecord
  2
ONSHAPE-STANDARD-HOLETABLE
 70
     0
 40
0.0
 41
1.0
 50
0.0
 71
     0
 42
0.12
  3
NotoSans-Regular.ttf
  4

1001
ACAD
1000
Noto Sans
1071
        0
  0
STYLE
  5
228
330
3
100
AcDbSymbolTableRecord
100
AcDbTextStyleTableRecord
  2
ONSHAPE-STANDARD-HOLETABL0
 70
     0
 40
0.0
 41
1.0
 50
0.0
 71
     0
 42
0.12
  3
NotoSans-Bold.ttf
  4

1001
ACAD
1000
Noto Sans
1071
 33554432
  0
STYLE
  5
229
330
3
100
AcDbSymbolTableRecord
100
AcDbTextStyleTableRecord
  2
ONSHAPE-STANDARD-HOLETABL1
 70
     0
 40
0.0
 41
1.0
 50
0.0
 71
     0
 42
0.12
  3
NotoSans-Bold.ttf
  4

1001
ACAD
1000
Noto Sans
1071
 33554432
  0
STYLE
  5
22A
330
3
100
AcDbSymbolTableRecord
100
AcDbTextStyleTableRecord
  2
ONSHAPE-STANDARD-HOLE-TAG
 70
     0
 40
0.12
 41
1.0
 50
0.0
 71
     0
 42
0.12
  3
Noto Sans
  4

1001
ACAD
1000
Noto Sans
1071
        0
  0
STYLE
  5
22B
330
3
100
AcDbSymbolTableRecord
100
AcDbTextStyleTableRecord
  2
ONSHAPE-STANDARD-REVISIONT
 70
     0
 40
0.0
 41
1.0
 50
0.0
 71
     0
 42
0.12
  3
NotoSans-Regular.ttf
  4

1001
ACAD
1000
Noto Sans
1071
        0
  0
STYLE
  5
22C
330
3
100
AcDbSymbolTableRecord
100
AcDbTextStyleTableRecord
  2
ONSHAPE-STANDARD-REVISION0
 70
     0
 40
0.0
 41
1.0
 50
0.0
 71
     0
 42
0.12
  3
NotoSans-Bold.ttf
  4

1001
ACAD
1000
Noto Sans
1071
 33554432
  0
STYLE
  5
22D
330
3
100
AcDbSymbolTableRecord
100
AcDbTextStyleTableRecord
  2
ONSHAPE-STANDARD-REVISION1
 70
     0
 40
0.0
 41
1.0
 50
0.0
 71
     0
 42
0.12
  3
NotoSans-Bold.ttf
  4

1001
ACAD
1000
Noto Sans
1071
 33554432
  0
STYLE
  5
22E
330
3
100
AcDbSymbolTableRecord
100
AcDbTextStyleTableRecord
  2
ONSHAPE-STANDARD-REVISION-
 70
     0
 40
0.12
 41
1.0
 50
0.0
 71
     0
 42
0.12
  3
Noto Sans
  4

1001
ACAD
1000
Noto Sans
1071
        0
  0
STYLE
  5
22F
330
3
100
AcDbSymbolTableRecord
100
AcDbTextStyleTableRecord
  2
ONSHAPE-STANDARD-CUTLISTTA
 70
     0
 40
0.0
 41
1.0
 50
0.0
 71
     0
 42
0.12
  3
NotoSans-Regular.ttf
  4

1001
ACAD
1000
Noto Sans
1071
        0
  0
STYLE
  5
230
330
3
100
AcDbSymbolTableRecord
100
AcDbTextStyleTableRecord
  2
ONSHAPE-STANDARD-CUTLISTT0
 70
     0
 40
0.0
 41
1.0
 50
0.0
 71
     0
 42
0.12
  3
NotoSans-Bold.ttf
  4

1001
ACAD
1000
Noto Sans
1071
 33554432
  0
STYLE
  5
231
330
3
100
AcDbSymbolTableRecord
100
AcDbTextStyleTableRecord
  2
ONSHAPE-STANDARD-CUTLISTT1
 70
     0
 40
0.0
 41
1.0
 50
0.0
 71
     0
 42
0.12
  3
NotoSans-Bold.ttf
  4

1001
ACAD
1000
Noto Sans
1071
 33554432
  0
ENDTAB
  0
TABLE
  2
VIEW
  5
6
330
0
100
AcDbSymbolTable
 70
     0
  0
ENDTAB
  0
TABLE
  2
UCS
  5
7
330
0
100
AcDbSymbolTable
 70
     0
  0
ENDTAB
  0
TABLE
  2
APPID
  5
9
330
0
100
AcDbSymbolTable
 70
     3
  0
APPID
  5
12
330
9
100
AcDbSymbolTableRecord
100
AcDbRegAppTableRecord
  2
ACAD
 70
     0
  0
APPID
  5
20B
330
9
100
AcDbSymbolTableRecord
100
AcDbRegAppTableRecord
  2
ONSHAPE_NOTES_ANNOTATION_D
 70
     0
  0
APPID
  5
28D
330
9
100
AcDbSymbolTableRecord
100
AcDbRegAppTableRecord
  2
ACAD_MLEADERVER
 70
     0
  0
ENDTAB
  0
TABLE
  2
DIMSTYLE
  5
A
330
0
100
AcDbSymbolTable
 70
    17
  0
DIMSTYLE
105
27
330
A
100
AcDbSymbolTableRecord
100
AcDbDimStyleTableRecord
  2
STANDARD
 70
     0
  3

  4

  5

  6

  7

 40
1.0
 41
0.18
 42
0.0625
 43
0.38
 44
0.18
 45
0.0
 46
0.0
 47
0.0
 48
0.0
140
0.18
141
0.09
142
0.0
143
25.4
144
1.0
145
0.0
146
1.0
147
0.09
 71
     0
 72
     0
 73
     1
 74
     1
 75
     0
 76
     0
 77
     0
 78
     0
170
     0
171
     2
172
     0
173
     0
174
     0
175
     0
176
     0
177
     0
178
     0
270
     2
271
     4
272
     4
273
     2
274
     2
340
11
275
     0
280
     0
281
     0
282
     0
283
     1
284
     0
285
     0
286
     0
287
     3
288
     0
  0
DIMSTYLE
105
71
330
A
100
AcDbSymbolTableRecord
100
AcDbDimStyleTableRecord
  2
ONSHAPE-STANDARD
 70
     0
  3

  4

  5

  6

  7

 40
1.0
 41
0.18
 42
0.0625
 43
0.38
 44
0.08
 45
0.0
 46
0.0
 47
0.0
 48
0.0
140
0.12
141
0.09
142
0.0
143
25.4
144
1.0
145
0.0
146
1.0
147
0.09
 71
     0
 72
     0
 73
     1
 74
     1
 75
     0
 76
     0
 77
     0
 78
     7
170
     0
171
     2
172
     0
173
     0
174
     0
175
     0
176
     7
177
     7
178
     7
179
     1
270
     2
271
     3
272
     3
273
     2
274
     2
340
72
275
     0
280
     0
281
     0
282
     0
283
     1
284
     7
285
     7
286
     0
287
     3
288
     1
  0
DIMSTYLE
105
234
330
A
100
AcDbSymbolTableRecord
100
AcDbDimStyleTableRecord
  2
ANSI
 70
     0
  3

  4
mm
  5

  6

  7

 40
1.0
 41
0.12
 42
0.05
 43
0.5
 44
0.1
 45
0.0
 46
0.0
 47
0.1
 48
0.1
140
0.12
141
0.0
142
0.0
143
25.4
144
1.0
145
0.0
146
0.71
147
0.06
 71
     0
 72
     0
 73
     1
 74
     1
 75
     0
 76
     0
 77
     0
 78
     7
170
     0
171
     2
172
     0
173
     0
174
     0
175
     0
176
     7
177
     7
178
     7
270
     2
271
     3
272
     4
273
     2
274
     2
340
11
275
     0
280
     0
281
     0
282
     0
283
     1
284
     7
285
     7
286
     0
287
     3
288
     1
  0
DIMSTYLE
105
235
330
A
100
AcDbSymbolTableRecord
100
AcDbDimStyleTableRecord
  2
ANSI$3
 70
     0
  3

  4
mm
  5

  6

  7

 40
1.0
 41
0.12
 42
0.05
 43
0.5
 44
0.1
 45
0.0
 46
0.0
 47
0.1
 48
0.1
140
0.12
141
0.0
142
0.0
143
25.4
144
1.0
145
0.0
146
0.71
147
0.06
 71
     0
 72
     0
 73
     1
 74
     1
 75
     0
 76
     0
 77
     0
 78
     7
170
     0
171
     2
172
     0
173
     0
174
     0
175
     0
176
     7
177
     7
178
     7
270
     2
271
     3
272
     4
273
     2
274
     2
340
11
275
     0
280
     0
281
     0
282
     0
283
     1
284
     7
285
     7
286
     0
288
     1
  0
DIMSTYLE
105
236
330
A
100
AcDbSymbolTableRecord
100
AcDbDimStyleTableRecord
  2
ANSI$4
 70
     0
  3

  4
mm
  5

  6

  7

 40
1.0
 41
0.12
 42
0.05
 43
0.5
 44
0.1
 45
0.0
 46
0.0
 47
0.1
 48
0.1
140
0.12
141
0.0
142
0.0
143
25.4
144
1.0
145
0.0
146
0.71
147
0.06
 71
     0
 72
     0
 73
     1
 74
     1
 75
     0
 76
     0
 77
     0
 78
     7
170
     0
171
     2
172
     0
173
     0
174
     0
175
     0
176
     7
177
     7
178
     7
270
     2
271
     3
272
     4
273
     2
274
     2
340
11
275
     0
280
     0
281
     0
282
     0
283
     1
284
     7
285
     7
286
     0
287
     3
288
     1
  0
DIMSTYLE
105
237
330
A
100
AcDbSymbolTableRecord
100
AcDbDimStyleTableRecord
  2
ANSI$7
 70
     0
  3

  4
mm
  5

  6

  7

 40
1.0
 41
0.12
 42
0.05
 43
0.5
 44
0.1
 45
0.0
 46
0.0
 47
0.1
 48
0.1
140
0.12
141
0.0
142
0.0
143
25.4
144
1.0
145
0.0
146
0.71
147
0.06
 71
     0
 72
     0
 73
     1
 74
     1
 75
     0
 76
     0
 77
     0
 78
     7
170
     0
171
     2
172
     0
173
     0
174
     0
175
     0
176
     7
177
     7
178
     7
270
     2
271
     3
272
     4
273
     2
274
     2
340
11
275
     0
280
     0
281
     0
282
     0
283
     1
284
     7
285
     7
286
     0
287
     3
288
     1
  0
DIMSTYLE
105
238
330
A
100
AcDbSymbolTableRecord
100
AcDbDimStyleTableRecord
  2
ANSI$SF
 70
     0
  3

  4
mm
  5

  6

  7

 40
1.0
 41
0.12
 42
0.05
 43
0.5
 44
0.1
 45
0.0
 46
0.0
 47
0.1
 48
0.1
140
0.12
141
0.0
142
0.0
143
25.4
144
1.0
145
0.0
146
0.71
147
0.06
 71
     0
 72
     0
 73
     1
 74
     1
 75
     1
 76
     1
 77
     0
 78
     7
170
     0
171
     2
172
     0
173
     0
174
     0
175
     0
176
     7
177
     7
178
     7
270
     2
271
     3
272
     4
273
     2
274
     2
340
11
275
     0
280
     0
281
     0
282
     0
283
     1
284
     7
285
     7
286
     0
287
     3
288
     1
  0
DIMSTYLE
105
239
330
A
100
AcDbSymbolTableRecord
100
AcDbDimStyleTableRecord
  2
ANSI$SH
 70
     0
  3

  4
mm
  5

  6

  7

 40
1.0
 41
0.12
 42
0.05
 43
0.5
 44
0.1
 45
0.0
 46
0.0
 47
0.1
 48
0.1
140
0.12
141
0.0
142
0.0
143
25.4
144
1.0
145
0.0
146
0.71
147
0.06
 71
     0
 72
     0
 73
     1
 74
     1
 75
     1
 76
     1
 77
     0
 78
     7
170
     0
171
     2
172
     0
173
     1
174
     0
175
     0
176
     7
177
     7
178
     7
270
     2
271
     3
272
     4
273
     2
274
     2
340
11
275
     0
280
     0
281
     0
282
     0
283
     1
284
     7
285
     7
286
     0
287
     3
288
     1
  0
DIMSTYLE
105
23C
330
A
100
AcDbSymbolTableRecord
100
AcDbDimStyleTableRecord
  2
ONSHAPE-STANDARD$0
 70
     0
  3

  4

  5

  6

  7

 40
1.0
 41
0.18
 42
0.0625
 43
0.38
 44
0.08
 45
0.0
 46
0.0
 47
0.0
 48
0.0
140
0.12
141
0.09
142
0.0
143
25.4
144
1.0
145
0.0
146
1.0
147
0.09
 71
     0
 72
     0
 73
     1
 74
     1
 75
     0
 76
     0
 77
     0
 78
     7
170
     0
171
     2
172
     0
173
     0
174
     0
175
     0
176
     7
177
     7
178
     7
179
     1
270
     2
271
     3
272
     3
273
     2
274
     2
340
72
275
     0
280
     0
281
     0
282
     0
283
     1
284
     7
285
     7
286
     0
287
     3
288
     1
  0
DIMSTYLE
105
23D
330
A
100
AcDbSymbolTableRecord
100
AcDbDimStyleTableRecord
  2
ONSHAPE-STANDARD$2
 70
     0
  3

  4

  5

  6

  7

 40
1.0
 41
0.18
 42
0.0625
 43
0.38
 44
0.08
 45
0.0
 46
0.0
 47
0.0
 48
0.0
140
0.12
141
0.09
142
0.0
143
25.4
144
1.0
145
0.0
146
1.0
147
0.09
 71
     0
 72
     0
 73
     1
 74
     1
 75
     0
 76
     0
 77
     0
 78
     7
170
     0
171
     2
172
     0
173
     0
174
     0
175
     0
176
     7
177
     7
178
     7
179
     1
270
     2
271
     3
272
     3
273
     2
274
     2
340
72
275
     0
280
     0
281
     0
282
     0
283
     1
284
     7
285
     7
286
     0
287
     3
288
     1
  0
DIMSTYLE
105
23E
330
A
100
AcDbSymbolTableRecord
100
AcDbDimStyleTableRecord
  2
ONSHAPE-STANDARD$3
 70
     0
  3

  4

  5

  6

  7

 40
1.0
 41
0.18
 42
0.0625
 43
0.38
 44
0.08
 45
0.0
 46
0.0
 47
0.0
 48
0.0
140
0.12
141
0.0
142
0.0
143
25.4
144
1.0
145
0.0
146
1.0
147
0.09
 71
     0
 72
     0
 73
     1
 74
     1
 75
     0
 76
     0
 77
     0
 78
     7
170
     0
171
     2
172
     0
173
     0
174
     0
175
     0
176
     7
177
     7
178
     7
179
     1
270
     2
271
     3
272
     3
273
     2
274
     2
340
72
275
     0
280
     0
281
     0
282
     0
283
     1
284
     7
285
     7
286
     0
287
     3
288
     1
  0
DIMSTYLE
105
23F
330
A
100
AcDbSymbolTableRecord
100
AcDbDimStyleTableRecord
  2
ONSHAPE-STANDARD$4
 70
     0
  3

  4

  5

  6

  7

 40
1.0
 41
0.18
 42
0.0625
 43
0.38
 44
0.08
 45
0.0
 46
0.0
 47
0.0
 48
0.0
140
0.12
141
0.0
142
0.0
143
25.4
144
1.0
145
0.0
146
1.0
147
0.09
 71
     0
 72
     0
 73
     1
 74
     1
 75
     0
 76
     0
 77
     0
 78
     7
170
     0
171
     2
172
     0
173
     0
174
     0
175
     0
176
     7
177
     7
178
     7
179
     1
270
     2
271
     3
272
     3
273
     2
274
     2
340
72
275
     0
280
     0
281
     0
282
     0
283
     1
284
     7
285
     7
286
     0
287
     3
288
     1
  0
DIMSTYLE
105
240
330
A
100
AcDbSymbolTableRecord
100
AcDbDimStyleTableRecord
  2
ONSHAPE-STANDARD$6
 70
     0
  3

  4

  5

  6

  7

 40
1.0
 41
0.02
 42
0.0625
 43
0.38
 44
0.08
 45
0.0
 46
0.0
 47
0.0
 48
0.0
140
0.12
141
0.09
142
0.0
143
25.4
144
1.0
145
0.0
146
1.0
147
0.09
 71
     0
 72
     0
 73
     1
 74
     1
 75
     0
 76
     0
 77
     0
 78
     7
170
     0
171
     2
172
     0
173
     0
174
     0
175
     0
176
     7
177
     7
178
     7
179
     1
270
     2
271
     3
272
     3
273
     2
274
     2
340
72
275
     0
280
     0
281
     0
282
     0
283
     1
284
     7
285
     7
286
     0
287
     3
288
     1
  0
DIMSTYLE
105
241
330
A
100
AcDbSymbolTableRecord
100
AcDbDimStyleTableRecord
  2
ONSHAPE-STANDARD$7
 70
     0
  3

  4

  5

  6

  7

 40
1.0
 41
0.18
 42
0.0625
 43
0.38
 44
0.08
 45
0.0
 46
0.0
 47
0.0
 48
0.0
140
0.12
141
0.09
142
0.0
143
25.4
144
1.0
145
0.0
146
1.0
147
0.09
 71
     0
 72
     0
 73
     1
 74
     1
 75
     0
 76
     0
 77
     0
 78
     7
170
     0
171
     2
172
     0
173
     0
174
     0
175
     0
176
     7
177
     7
178
     7
179
     1
270
     2
271
     3
272
     3
273
     2
274
     2
340
72
275
     0
280
     0
281
     0
282
     0
283
     1
284
     7
285
     7
286
     0
287
     3
288
     1
  0
DIMSTYLE
105
242
330
A
100
AcDbSymbolTableRecord
100
AcDbDimStyleTableRecord
  2
ONSHAPE-STANDARD-GTOLERANC
 70
     0
  3

  4

  5

  6

  7

 40
1.0
 41
0.18
 42
0.0625
 43
0.38
 44
0.08
 45
0.0
 46
0.0
 47
0.0
 48
0.0
140
0.12
141
0.09
142
0.0
143
25.4
144
1.0
145
0.0
146
1.0
147
0.09
 71
     0
 72
     0
 73
     1
 74
     1
 75
     0
 76
     0
 77
     0
 78
     7
170
     0
171
     2
172
     0
173
     0
174
     0
175
     0
176
     7
177
     7
178
     7
179
     1
270
     2
271
     3
272
     3
273
     2
274
     2
340
21C
275
     0
280
     0
281
     0
282
     0
283
     1
284
     7
285
     7
286
     0
287
     3
288
     1
  0
DIMSTYLE
105
244
330
A
100
AcDbSymbolTableRecord
100
AcDbDimStyleTableRecord
  2
ONSHAPE-ORDINATESTYLE
 70
     0
  3

  4

  5

  6

  7

 40
1.0
 41
0.02
 42
0.0625
 43
0.38
 44
0.08
 45
0.0
 46
0.0
 47
0.0
 48
0.0
140
0.12
141
0.09
142
0.0
143
25.4
144
1.0
145
0.0
146
1.0
147
0.09
 71
     0
 72
     0
 73
     1
 74
     1
 75
     0
 76
     0
 77
     0
 78
     7
170
     0
171
     2
172
     0
173
     0
174
     0
175
     0
176
     7
177
     7
178
     7
179
     1
270
     2
271
     3
272
     3
273
     2
274
     2
340
72
275
     0
280
     0
281
     0
282
     0
283
     1
284
     7
285
     7
286
     0
287
     3
288
     1
  0
DIMSTYLE
105
245
330
A
100
AcDbSymbolTableRecord
100
AcDbDimStyleTableRecord
  2
ONSHAPE-CHAMFERDIMSTYLE
 70
     0
  3

  4

  5

  6

  7

 40
1.0
 41
0.18
 42
0.0625
 43
0.38
 44
0.08
 45
0.0
 46
0.0
 47
0.0
 48
0.0
140
0.12
141
0.09
142
0.0
143
25.4
144
1.0
145
0.0
146
1.0
147
0.09
 71
     0
 72
     0
 73
     1
 74
     1
 75
     0
 76
     0
 77
     0
 78
     7
170
     0
171
     2
172
     0
173
     0
174
     0
175
     0
176
     7
177
     7
178
     7
179
     1
270
     2
271
     3
272
     3
273
     2
274
     2
340
72
275
     0
280
     0
281
     0
282
     0
283
     1
284
     7
285
     7
286
     0
287
     3
288
     1
  0
ENDTAB
  0
TABLE
  2
BLOCK_RECORD
  5
1
330
0
100
AcDbSymbolTable
 70
     0
  0
BLOCK_RECORD
  5
1F
330
1
100
AcDbSymbolTableRecord
100
AcDbBlockTableRecord
  2
*MODEL_SPACE
  0
BLOCK_RECORD
  5
1B
330
1
100
AcDbSymbolTableRecord
100
AcDbBlockTableRecord
  2
*PAPER_SPACE
  0
ENDTAB
  0
ENDSEC
  0
SECTION
  2
BLOCKS
  0
BLOCK
  5
20
330
1F
100
AcDbEntity
  8
0
100
AcDbBlockBegin
  2
*MODEL_SPACE
 70
     0
 10
0.0
 20
0.0
 30
0.0
  3
*MODEL_SPACE
  1

  0
ENDBLK
  5
21
330
1F
100
AcDbEntity
  8
0
100
AcDbBlockEnd
  0
BLOCK
  5
1C
330
1B
100
AcDbEntity
 67
     1
  8
0
100
AcDbBlockBegin
  2
*PAPER_SPACE
 70
     0
 10
0.0
 20
0.0
 30
0.0
  3
*PAPER_SPACE
  1

  0
ENDBLK
  5
1D
330
1B
100
AcDbEntity
 67
     1
  8
0
100
AcDbBlockEnd
  0
ENDSEC
  0
SECTION
  2
ENTITIES
  0
ARC
  5
75
330
1F
100
AcDbEntity
  8
VISIBLE
100
AcDbCircle
 10
20.43376760650702
 20
12.19531143298673
 30
0.0
 40
0.0299999999999962
100
AcDbArc
 50
9.594068226857207
 51
90.0
  0
ARC
  5
76
330
1F
100
AcDbEntity
  8
VISIBLE
100
AcDbCircle
 10
20.61125000000001
 20
12.22531143298672
 30
0.0
 40
0.15
100
AcDbArc
 50
189.594068226859
 51
0.0
  0
LINE
  5
77
330
1F
100
AcDbEntity
  8
VISIBLE
100
AcDbLine
 10
20.76125
 20
12.22531143298672
 30
0.0
 11
20.76125
 21
12.70031143298672
 31
0.0
  0
ARC
  5
78
330
1F
100
AcDbEntity
  8
VISIBLE
100
AcDbCircle
 10
20.61125000000001
 20
12.70031143298672
 30
0.0
 40
0.1499999999999999
100
AcDbArc
 50
0.0000000000006794
 51
170.405931773141
  0
ARC
  5
79
330
1F
100
AcDbEntity
  8
VISIBLE
100
AcDbCircle
 10
20.43376760650702
 20
12.73031143298672
 30
0.0
 40
0.0299999999999941
100
AcDbArc
 50
270.0
 51
350.4059317731428
  0
LINE
  5
7A
330
1F
100
AcDbEntity
  8
VISIBLE
100
AcDbLine
 10
17.85473239349299
 20
12.70031143298672
 30
0.0
 11
20.43376760650702
 21
12.70031143298672
 31
0.0
  0
ARC
  5
7B
330
1F
100
AcDbEntity
  8
VISIBLE
100
AcDbCircle
 10
17.85473239349299
 20
12.73031143298672
 30
0.0
 40
0.0299999999999941
100
AcDbArc
 50
189.5940682268572
 51
270.0
  0
ARC
  5
7C
330
1F
100
AcDbEntity
  8
VISIBLE
100
AcDbCircle
 10
17.67725000000001
 20
12.70031143298672
 30
0.0
 40
0.1499999999999997
100
AcDbArc
 50
9.594068226859411
 51
180.0
  0
LINE
  5
7D
330
1F
100
AcDbEntity
  8
VISIBLE
100
AcDbLine
 10
17.52725
 20
12.22531143298672
 30
0.0
 11
17.52725
 21
12.70031143298672
 31
0.0
  0
ARC
  5
7E
330
1F
100
AcDbEntity
  8
VISIBLE
100
AcDbCircle
 10
17.67725000000001
 20
12.22531143298672
 30
0.0
 40
0.1499999999999998
100
AcDbArc
 50
179.9999999999993
 51
350.4059317731406
  0
ARC
  5
7F
330
1F
100
AcDbEntity
  8
VISIBLE
100
AcDbCircle
 10
17.85473239349299
 20
12.19531143298673
 30
0.0
 40
0.0299999999999924
100
AcDbArc
 50
90.0
 51
170.4059317731428
  0
LINE
  5
80
330
1F
100
AcDbEntity
  8
VISIBLE
100
AcDbLine
 10
17.85473239349299
 20
12.22531143298672
 30
0.0
 11
20.43376760650702
 21
12.22531143298672
 31
0.0
  0
LINE
  5
81
330
1F
100
AcDbEntity
  8
VISIBLE
100
AcDbLine
 10
11.09925
 20
12.22531143298672
 30
0.0
 11
11.09925
 21
12.70031143298672
 31
0.0
  0
ARC
  5
82
330
1F
100
AcDbEntity
  8
VISIBLE
100
AcDbCircle
 10
11.24925
 20
12.22531143298672
 30
0.0
 40
0.15
100
AcDbArc
 50
179.9999999999993
 51
350.4059317731415
  0
ARC
  5
83
330
1F
100
AcDbEntity
  8
VISIBLE
100
AcDbCircle
 10
11.42673239349299
 20
12.19531143298673
 30
0.0
 40
0.0299999999999929
100
AcDbArc
 50
90.0
 51
170.4059317731428
  0
LINE
  5
84
330
1F
100
AcDbEntity
  8
VISIBLE
100
AcDbLine
 10
14.00576760650702
 20
12.22531143298672
 30
0.0
 11
11.42673239349299
 21
12.22531143298672
 31
0.0
  0
ARC
  5
85
330
1F
100
AcDbEntity
  8
VISIBLE
100
AcDbCircle
 10
14.00576760650702
 20
12.19531143298673
 30
0.0
 40
0.0299999999999938
100
AcDbArc
 50
9.594068226860552
 51
90.0000000000034
  0
ARC
  5
86
330
1F
100
AcDbEntity
  8
VISIBLE
100
AcDbCircle
 10
14.18325
 20
12.22531143298672
 30
0.0
 40
0.15
100
AcDbArc
 50
189.5940682268592
 51
0.0
  0
LINE
  5
87
330
1F
100
AcDbEntity
  8
VISIBLE
100
AcDbLine
 10
14.33325
 20
12.22531143298672
 30
0.0
 11
14.33325
 21
12.70031143298672
 31
0.0
  0
ARC
  5
88
330
1F
100
AcDbEntity
  8
VISIBLE
100
AcDbCircle
 10
14.18325
 20
12.70031143298672
 30
0.0
 40
0.1500000000000001
100
AcDbArc
 50
0.0000000000006794
 51
170.4059317731408
  0
ARC
  5
89
330
1F
100
AcDbEntity
  8
VISIBLE
100
AcDbCircle
 10
14.00576760650702
 20
12.73031143298672
 30
0.0
 40
0.0299999999999939
100
AcDbArc
 50
269.9999999999932
 51
350.4059317731428
  0
LINE
  5
8A
330
1F
100
AcDbEntity
  8
VISIBLE
100
AcDbLine
 10
11.42673239349299
 20
12.70031143298672
 30
0.0
 11
14.00576760650702
 21
12.70031143298672
 31
0.0
  0
ARC
  5
8B
330
1F
100
AcDbEntity
  8
VISIBLE
100
AcDbCircle
 10
11.42673239349299
 20
12.73031143298672
 30
0.0
 40
0.0299999999999938
100
AcDbArc
 50
189.5940682268605
 51
270.0
  0
ARC
  5
8C
330
1F
100
AcDbEntity
  8
VISIBLE
100
AcDbCircle
 10
11.24925
 20
12.70031143298672
 30
0.0
 40
0.15
100
AcDbArc
 50
9.594068226859186
 51
180.0
  0
LINE
  5
8D
330
1F
100
AcDbEntity
  8
VISIBLE
100
AcDbLine
 10
4.671250000000002
 20
12.22531143298672
 30
0.0
 11
4.671250000000001
 21
12.70031143298672
 31
0.0
  0
ARC
  5
8E
330
1F
100
AcDbEntity
  8
VISIBLE
100
AcDbCircle
 10
4.821250000000001
 20
12.22531143298672
 30
0.0
 40
0.1499999999999999
100
AcDbArc
 50
179.9999999999993
 51
350.4059317731415
  0
ARC
  5
8F
330
1F
100
AcDbEntity
  8
VISIBLE
100
AcDbCircle
 10
4.998732393492989
 20
12.19531143298673
 30
0.0
 40
0.0299999999999953
100
AcDbArc
 50
90.0000000000051
 51
170.4059317731364
  0
LINE
  5
90
330
1F
100
AcDbEntity
  8
VISIBLE
100
AcDbLine
 10
4.998732393492986
 20
12.22531143298672
 30
0.0
 11
7.577767606507016
 21
12.22531143298672
 31
0.0
  0
ARC
  5
91
330
1F
100
AcDbEntity
  8
VISIBLE
100
AcDbCircle
 10
7.577767606507016
 20
12.19531143298673
 30
0.0
 40
0.0299999999999948
100
AcDbArc
 50
9.594068226863614
 51
90.0
  0
ARC
  5
92
330
1F
100
AcDbEntity
  8
VISIBLE
100
AcDbCircle
 10
7.755250000000002
 20
12.22531143298672
 30
0.0
 40
0.1499999999999999
100
AcDbArc
 50
189.5940682268585
 51
0.0
  0
LINE
  5
93
330
1F
100
AcDbEntity
  8
VISIBLE
100
AcDbLine
 10
7.905250000000001
 20
12.22531143298672
 30
0.0
 11
7.905250000000001
 21
12.70031143298672
 31
0.0
  0
ARC
  5
94
330
1F
100
AcDbEntity
  8
VISIBLE
100
AcDbCircle
 10
7.755249999999998
 20
12.70031143298672
 30
0.0
 40
0.1500000000000001
100
AcDbArc
 50
0.0000000000006794
 51
170.4059317731401
  0
ARC
  5
95
330
1F
100
AcDbEntity
  8
VISIBLE
100
AcDbCircle
 10
7.577767606507014
 20
12.73031143298672
 30
0.0
 40
0.0299999999999962
100
AcDbArc
 50
270.0
 51
350.4059317731403
  0
LINE
  5
96
330
1F
100
AcDbEntity
  8
VISIBLE
100
AcDbLine
 10
4.998732393492986
 20
12.70031143298672
 30
0.0
 11
7.577767606507014
 21
12.70031143298672
 31
0.0
  0
ARC
  5
97
330
1F
100
AcDbEntity
  8
VISIBLE
100
AcDbCircle
 10
4.998732393492991
 20
12.73031143298672
 30
0.0
 40
0.0299999999999955
100
AcDbArc
 50
189.594068226853
 51
269.9999999999915
  0
ARC
  5
98
330
1F
100
AcDbEntity
  8
VISIBLE
100
AcDbCircle
 10
4.821250000000001
 20
12.70031143298672
 30
0.0
 40
0.1500000000000001
100
AcDbArc
 50
9.59406822685991
 51
180.0
  0
LINE
  5
99
330
1F
100
AcDbEntity
  8
VISIBLE
100
AcDbLine
 10
17.52725
 20
20.69031143298672
 30
0.0
 11
17.52725
 21
21.16531143298672
 31
0.0
  0
ARC
  5
9A
330
1F
100
AcDbEntity
  8
VISIBLE
100
AcDbCircle
 10
17.67725000000001
 20
20.69031143298672
 30
0.0
 40
0.15
100
AcDbArc
 50
180.0
 51
350.4059317731386
  0
ARC
  5
9B
330
1F
100
AcDbEntity
  8
VISIBLE
100
AcDbCircle
 10
17.85473239349299
 20
20.66031143298672
 30
0.0
 40
0.0299999999999949
100
AcDbArc
 50
90.0
 51
170.4059317731462
  0
LINE
  5
9C
330
1F
100
AcDbEntity
  8
VISIBLE
100
AcDbLine
 10
17.85473239349299
 20
20.69031143298672
 30
0.0
 11
20.43376760650702
 21
20.69031143298673
 31
0.0
  0
ARC
  5
9D
330
1F
100
AcDbEntity
  8
VISIBLE
100
AcDbCircle
 10
20.43376760650702
 20
20.66031143298673
 30
0.0
 40
0.0299999999999969
100
AcDbArc
 50
9.59406822685829
 51
90.0
  0
ARC
  5
9E
330
1F
100
AcDbEntity
  8
VISIBLE
100
AcDbCircle
 10
20.61125
 20
20.69031143298672
 30
0.0
 40
0.1500000000000004
100
AcDbArc
 50
189.5940682268583
 51
0.0
  0
LINE
  5
9F
330
1F
100
AcDbEntity
  8
VISIBLE
100
AcDbLine
 10
20.76125
 20
20.69031143298672
 30
0.0
 11
20.76125
 21
21.16531143298672
 31
0.0
  0
ARC
  5
A0
330
1F
100
AcDbEntity
  8
VISIBLE
100
AcDbCircle
 10
20.61125000000001
 20
21.16531143298672
 30
0.0
 40
0.15
100
AcDbArc
 50
0.000000000000035
 51
170.4059317731413
  0
ARC
  5
A1
330
1F
100
AcDbEntity
  8
VISIBLE
100
AcDbCircle
 10
20.43376760650701
 20
21.19531143298672
 30
0.0
 40
0.0300000000000028
100
AcDbArc
 50
270.0000000000135
 51
350.405931773144
  0
LINE
  5
A2
330
1F
100
AcDbEntity
  8
VISIBLE
100
AcDbLine
 10
17.85473239349299
 20
21.16531143298672
 30
0.0
 11
20.43376760650702
 21
21.16531143298672
 31
0.0
  0
ARC
  5
A3
330
1F
100
AcDbEntity
  8
VISIBLE
100
AcDbCircle
 10
17.85473239349299
 20
21.19531143298672
 30
0.0
 40
0.0299999999999967
100
AcDbArc
 50
189.5940682268538
 51
270.0
  0
ARC
  5
A4
330
1F
100
AcDbEntity
  8
VISIBLE
100
AcDbCircle
 10
17.67725
 20
21.16531143298672
 30
0.0
 40
0.1500000000000001
100
AcDbArc
 50
9.594068226859628
 51
180.0
  0
ARC
  5
A5
330
1F
100
AcDbEntity
  8
VISIBLE
100
AcDbCircle
 10
11.42673239349299
 20
21.19531143298672
 30
0.0
 40
0.0299999999999947
100
AcDbArc
 50
189.59406822686
 51
270.0
  0
ARC
  5
A6
330
1F
100
AcDbEntity
  8
VISIBLE
100
AcDbCircle
 10
11.24925
 20
21.16531143298672
 30
0.0
 40
0.15
100
AcDbArc
 50
9.594068226859967
 51
180.0
  0
LINE
  5
A7
330
1F
100
AcDbEntity
  8
VISIBLE
100
AcDbLine
 10
11.09925
 20
20.69031143298672
 30
0.0
 11
11.09925
 21
21.16531143298672
 31
0.0
  0
ARC
  5
A8
330
1F
100
AcDbEntity
  8
VISIBLE
100
AcDbCircle
 10
11.24925
 20
20.69031143298672
 30
0.0
 40
0.15
100
AcDbArc
 50
180.0
 51
350.40593177314
  0
ARC
  5
A9
330
1F
100
AcDbEntity
  8
VISIBLE
100
AcDbCircle
 10
11.42673239349299
 20
20.66031143298672
 30
0.0
 40
0.0299999999999972
100
AcDbArc
 50
90.0
 51
170.4059317731406
  0
LINE
  5
AA
330
1F
100
AcDbEntity
  8
VISIBLE
100
AcDbLine
 10
11.42673239349299
 20
20.69031143298672
 30
0.0
 11
14.00576760650702
 21
20.69031143298672
 31
0.0
  0
ARC
  5
AB
330
1F
100
AcDbEntity
  8
VISIBLE
100
AcDbCircle
 10
14.00576760650702
 20
20.66031143298673
 30
0.0
 40
0.0299999999999947
100
AcDbArc
 50
9.594068226853295
 51
90.0
  0
ARC
  5
AC
330
1F
100
AcDbEntity
  8
VISIBLE
100
AcDbCircle
 10
14.18325000000001
 20
20.69031143298672
 30
0.0
 40
0.15
100
AcDbArc
 50
189.5940682268599
 51
0.0
  0
LINE
  5
AD
330
1F
100
AcDbEntity
  8
VISIBLE
100
AcDbLine
 10
14.33325
 20
20.69031143298672
 30
0.0
 11
14.33325
 21
21.16531143298672
 31
0.0
  0
ARC
  5
AE
330
1F
100
AcDbEntity
  8
VISIBLE
100
AcDbCircle
 10
14.18325000000001
 20
21.16531143298672
 30
0.0
 40
0.15
100
AcDbArc
 50
0.0000000000013575
 51
170.4059317731401
  0
ARC
  5
AF
330
1F
100
AcDbEntity
  8
VISIBLE
100
AcDbCircle
 10
14.00576760650702
 20
21.19531143298672
 30
0.0
 40
0.0299999999999951
100
AcDbArc
 50
270.0
 51
350.4059317731467
  0
LINE
  5
B0
330
1F
100
AcDbEntity
  8
VISIBLE
100
AcDbLine
 10
11.42673239349299
 20
21.16531143298672
 30
0.0
 11
14.00576760650702
 21
21.16531143298672
 31
0.0
  0
ARC
  5
B1
330
1F
100
AcDbEntity
  8
VISIBLE
100
AcDbCircle
 10
7.577767606507011
 20
20.66031143298672
 30
0.0
 40
0.0299999999999952
100
AcDbArc
 50
9.594068226859985
 51
90.0
  0
ARC
  5
B2
330
1F
100
AcDbEntity
  8
VISIBLE
100
AcDbCircle
 10
7.755250000000006
 20
20.69031143298672
 30
0.0
 40
0.1499999999999998
100
AcDbArc
 50
189.5940682268599
 51
0.0
  0
LINE
  5
B3
330
1F
100
AcDbEntity
  8
VISIBLE
100
AcDbLine
 10
7.905250000000001
 20
20.69031143298672
 30
0.0
 11
7.905249999999999
 21
21.16531143298672
 31
0.0
  0
ARC
  5
B4
330
1F
100
AcDbEntity
  8
VISIBLE
100
AcDbCircle
 10
7.755250000000004
 20
21.16531143298672
 30
0.0
 40
0.1499999999999998
100
AcDbArc
 50
0.000000000000035
 51
170.4059317731401
  0
ARC
  5
B5
330
1F
100
AcDbEntity
  8
VISIBLE
100
AcDbCircle
 10
7.577767606507011
 20
21.19531143298672
 30
0.0
 40
0.0299999999999929
100
AcDbArc
 50
270.0
 51
350.4059317731392
  0
LINE
  5
B6
330
1F
100
AcDbEntity
  8
VISIBLE
100
AcDbLine
 10
4.998732393492991
 20
21.16531143298672
 30
0.0
 11
7.577767606507011
 21
21.16531143298673
 31
0.0
  0
ARC
  5
B7
330
1F
100
AcDbEntity
  8
VISIBLE
100
AcDbCircle
 10
4.998732393492991
 20
21.19531143298672
 30
0.0
 40
0.0299999999999996
100
AcDbArc
 50
189.5940682268586
 51
270.0
  0
ARC
  5
B8
330
1F
100
AcDbEntity
  8
VISIBLE
100
AcDbCircle
 10
4.82125
 20
21.16531143298672
 30
0.0
 40
0.1500000000000001
100
AcDbArc
 50
9.59406822685991
 51
180.0
  0
LINE
  5
B9
330
1F
100
AcDbEntity
  8
VISIBLE
100
AcDbLine
 10
4.671250000000001
 20
20.69031143298672
 30
0.0
 11
4.671250000000002
 21
21.16531143298672
 31
0.0
  0
ARC
  5
BA
330
1F
100
AcDbEntity
  8
VISIBLE
100
AcDbCircle
 10
4.821250000000004
 20
20.69031143298672
 30
0.0
 40
0.15
100
AcDbArc
 50
180.0
 51
350.4059317731387
  0
ARC
  5
BB
330
1F
100
AcDbEntity
  8
VISIBLE
100
AcDbCircle
 10
4.998732393492986
 20
20.66031143298672
 30
0.0
 40
0.0299999999999931
100
AcDbArc
 50
89.99999999999153
 51
170.4059317731392
  0
LINE
  5
BC
330
1F
100
AcDbEntity
  8
VISIBLE
100
AcDbLine
 10
4.998732393492991
 20
20.69031143298672
 30
0.0
 11
7.577767606507011
 21
20.69031143298672
 31
0.0
  0
LINE
  5
BD
330
1F
100
AcDbEntity
  8
VISIBLE
100
AcDbLine
 10
7.90325
 20
29.15631143298672
 30
0.0
 11
7.903249999999998
 21
29.62931143298672
 31
0.0
  0
ARC
  5
BE
330
1F
100
AcDbEntity
  8
VISIBLE
100
AcDbCircle
 10
7.753249999999993
 20
29.62931143298672
 30
0.0
 40
0.1500000000000001
100
AcDbArc
 50
0.0000000000013575
 51
170.4059317731374
  0
ARC
  5
BF
330
1F
100
AcDbEntity
  8
VISIBLE
100
AcDbCircle
 10
7.575767606507009
 20
29.65931143298672
 30
0.0
 40
0.0300000000000009
100
AcDbArc
 50
270.0
 51
350.4059317731487
  0
LINE
  5
C0
330
1F
100
AcDbEntity
  8
VISIBLE
100
AcDbLine
 10
5.002972007556115
 20
29.62931143298672
 30
0.0
 11
7.575767606507009
 21
29.62931143298672
 31
0.0
  0
ARC
  5
C1
330
1F
100
AcDbEntity
  8
VISIBLE
100
AcDbCircle
 10
5.002972007556115
 20
29.65931143298672
 30
0.0
 40
0.0300000000000009
100
AcDbArc
 50
183.1847385367174
 51
270.0
  0
ARC
  5
C2
330
1F
100
AcDbEntity
  8
VISIBLE
100
AcDbCircle
 10
4.82325000000001
 20
29.64931143298673
 30
0.0
 40
0.15
100
AcDbArc
 50
3.184738536718868
 51
179.9999999999987
  0
LINE
  5
C3
330
1F
100
AcDbEntity
  8
VISIBLE
100
AcDbLine
 10
4.673249999999999
 20
29.15631143298672
 30
0.0
 11
4.673249999999999
 21
29.64931143298673
 31
0.0
  0
ARC
  5
C4
330
1F
100
AcDbEntity
  8
VISIBLE
100
AcDbCircle
 10
4.82325
 20
29.15631143298672
 30
0.0
 40
0.1500000000000003
100
AcDbArc
 50
179.9999999999987
 51
350.4059317731374
  0
ARC
  5
C5
330
1F
100
AcDbEntity
  8
VISIBLE
100
AcDbCircle
 10
5.000732393492981
 20
29.12631143298672
 30
0.0
 40
0.0299999999999965
100
AcDbArc
 50
89.99999999998305
 51
170.4059317731473
  0
LINE
  5
C6
330
1F
100
AcDbEntity
  8
VISIBLE
100
AcDbLine
 10
5.000732393492989
 20
29.15631143298672
 30
0.0
 11
7.575767606507009
 21
29.15631143298672
 31
0.0
  0
ARC
  5
C7
330
1F
100
AcDbEntity
  8
VISIBLE
100
AcDbCircle
 10
7.575767606507018
 20
29.12631143298672
 30
0.0
 40
0.0299999999999965
100
AcDbArc
 50
9.59406822685273
 51
90.00000000001697
  0
ARC
  5
C8
330
1F
100
AcDbEntity
  8
VISIBLE
100
AcDbCircle
 10
7.753249999999993
 20
29.15631143298672
 30
0.0
 40
0.1500000000000001
100
AcDbArc
 50
189.5940682268627
 51
0.0
  0
ARC
  5
C9
330
1F
100
AcDbEntity
  8
VISIBLE
100
AcDbCircle
 10
20.43176760650702
 20
29.12631143298672
 30
0.0
 40
0.029999999999994
100
AcDbArc
 50
9.594068226873933
 51
90.00000000001357
  0
ARC
  5
CA
330
1F
100
AcDbEntity
  8
VISIBLE
100
AcDbCircle
 10
20.60925
 20
29.15631143298672
 30
0.0
 40
0.15
100
AcDbArc
 50
189.5940682268556
 51
0.0
  0
LINE
  5
CB
330
1F
100
AcDbEntity
  8
VISIBLE
100
AcDbLine
 10
20.75925000000001
 20
29.15631143298672
 30
0.0
 11
20.75925
 21
29.62931143298672
 31
0.0
  0
ARC
  5
CC
330
1F
100
AcDbEntity
  8
VISIBLE
100
AcDbCircle
 10
20.60925000000001
 20
29.62931143298672
 30
0.0
 40
0.1500000000000001
100
AcDbArc
 50
0.000000000000035
 51
170.4059317731404
  0
ARC
  5
CD
330
1F
100
AcDbEntity
  8
VISIBLE
100
AcDbCircle
 10
20.43176760650702
 20
29.65931143298672
 30
0.0
 40
0.0300000000000007
100
AcDbArc
 50
270.0
 51
350.4059317731417
  0
LINE
  5
CE
330
1F
100
AcDbEntity
  8
VISIBLE
100
AcDbLine
 10
17.856732393493
 20
29.62931143298672
 30
0.0
 11
20.43176760650702
 21
29.62931143298672
 31
0.0
  0
ARC
  5
CF
330
1F
100
AcDbEntity
  8
VISIBLE
100
AcDbCircle
 10
17.856732393493
 20
29.65931143298672
 30
0.0
 40
0.0300000000000009
100
AcDbArc
 50
189.5940682268516
 51
270.0
  0
ARC
  5
D0
330
1F
100
AcDbEntity
  8
VISIBLE
100
AcDbCircle
 10
17.67925000000002
 20
29.62931143298672
 30
0.0
 40
0.1500000000000001
100
AcDbArc
 50
9.594068226862756
 51
180.0
  0
LINE
  5
D1
330
1F
100
AcDbEntity
  8
VISIBLE
100
AcDbLine
 10
17.52925
 20
29.15631143298672
 30
0.0
 11
17.52925
 21
29.62931143298672
 31
0.0
  0
ARC
  5
D2
330
1F
100
AcDbEntity
  8
VISIBLE
100
AcDbCircle
 10
17.67925
 20
29.15631143298672
 30
0.0
 40
0.1499999999999998
100
AcDbArc
 50
180.0
 51
350.4059317731399
  0
ARC
  5
D3
330
1F
100
AcDbEntity
  8
VISIBLE
100
AcDbCircle
 10
17.856732393493
 20
29.12631143298672
 30
0.0
 40
0.030000000000001
100
AcDbArc
 50
90.0
 51
170.4059317731351
  0
LINE
  5
D4
330
1F
100
AcDbEntity
  8
VISIBLE
100
AcDbLine
 10
17.856732393493
 20
29.15631143298672
 30
0.0
 11
20.43176760650702
 21
29.15631143298672
 31
0.0
  0
ARC
  5
D5
330
1F
100
AcDbEntity
  8
VISIBLE
100
AcDbCircle
 10
14.00376760650702
 20
29.12631143298672
 30
0.0
 40
0.0299999999999967
100
AcDbArc
 50
9.59406822685273
 51
90.00000000001697
  0
ARC
  5
D6
330
1F
100
AcDbEntity
  8
VISIBLE
100
AcDbCircle
 10
14.18125
 20
29.15631143298672
 30
0.0
 40
0.1500000000000001
100
AcDbArc
 50
189.5940682268627
 51
0.0
  0
LINE
  5
D7
330
1F
100
AcDbEntity
  8
VISIBLE
100
AcDbLine
 10
14.33125
 20
29.15631143298672
 30
0.0
 11
14.33125
 21
29.62931143298672
 31
0.0
  0
ARC
  5
D8
330
1F
100
AcDbEntity
  8
VISIBLE
100
AcDbCircle
 10
14.18125
 20
29.62931143298672
 30
0.0
 40
0.1500000000000001
100
AcDbArc
 50
0.000000000000035
 51
170.4059317731374
  0
ARC
  5
D9
330
1F
100
AcDbEntity
  8
VISIBLE
100
AcDbCircle
 10
14.00376760650702
 20
29.65931143298672
 30
0.0
 40
0.0300000000000007
100
AcDbArc
 50
270.0
 51
350.4059317731484
  0
LINE
  5
DA
330
1F
100
AcDbEntity
  8
VISIBLE
100
AcDbLine
 10
11.42873239349299
 20
29.62931143298672
 30
0.0
 11
14.00376760650702
 21
29.62931143298672
 31
0.0
  0
ARC
  5
DB
330
1F
100
AcDbEntity
  8
VISIBLE
100
AcDbCircle
 10
11.42873239349299
 20
29.65931143298672
 30
0.0
 40
0.0300000000000009
100
AcDbArc
 50
189.5940682268516
 51
270.0
  0
ARC
  5
DC
330
1F
100
AcDbEntity
  8
VISIBLE
100
AcDbCircle
 10
11.25125
 20
29.62931143298672
 30
0.0
 40
0.1500000000000001
100
AcDbArc
 50
9.594068226862642
 51
180.0
  0
LINE
  5
DD
330
1F
100
AcDbEntity
  8
VISIBLE
100
AcDbLine
 10
11.10125
 20
29.15631143298672
 30
0.0
 11
11.10125
 21
29.62931143298672
 31
0.0
  0
ARC
  5
DE
330
1F
100
AcDbEntity
  8
VISIBLE
100
AcDbCircle
 10
11.25125
 20
29.15631143298672
 30
0.0
 40
0.15
100
AcDbArc
 50
179.9999999999987
 51
350.40593177314
  0
ARC
  5
DF
330
1F
100
AcDbEntity
  8
VISIBLE
100
AcDbCircle
 10
11.42873239349298
 20
29.12631143298672
 30
0.0
 40
0.0299999999999966
100
AcDbArc
 50
89.99999999998305
 51
170.4059317731333
  0
LINE
  5
E0
330
1F
100
AcDbEntity
  8
VISIBLE
100
AcDbLine
 10
11.42873239349299
 20
29.15631143298672
 30
0.0
 11
14.00376760650702
 21
29.15631143298672
 31
0.0
  0
LINE
  5
E1
330
1F
100
AcDbEntity
  8
VISIBLE
100
AcDbLine
 10
4.67825
 20
37.62131143298672
 30
0.0
 11
4.678249999999998
 21
38.09031143298672
 31
0.0
  0
ARC
  5
E2
330
1F
100
AcDbEntity
  8
VISIBLE
100
AcDbCircle
 10
4.82825
 20
37.62131143298672
 30
0.0
 40
0.1500000000000003
100
AcDbArc
 50
180.0
 51
340.5287793655106
  0
ARC
  5
E3
330
1F
100
AcDbEntity
  8
VISIBLE
100
AcDbCircle
 10
5.040382034355975
 20
37.54631143298671
 30
0.0
 40
0.0750000000000113
100
AcDbArc
 50
90.00000000000813
 51
160.5287793655021
  0
LINE
  5
E4
330
1F
100
AcDbEntity
  8
VISIBLE
100
AcDbLine
 10
7.544117965644036
 20
37.62131143298672
 30
0.0
 11
5.040382034355964
 21
37.62131143298672
 31
0.0
  0
ARC
  5
E5
330
1F
100
AcDbEntity
  8
VISIBLE
100
AcDbCircle
 10
7.544117965644036
 20
37.54631143298673
 30
0.0
 40
0.0749999999999976
100
AcDbArc
 50
19.47122063449016
 51
90.0
  0
ARC
  5
E6
330
1F
100
AcDbEntity
  8
VISIBLE
100
AcDbCircle
 10
7.756250000000002
 20
37.62131143298672
 30
0.0
 40
0.1499999999999997
100
AcDbArc
 50
199.4712206344896
 51
0.0
  0
LINE
  5
E7
330
1F
100
AcDbEntity
  8
VISIBLE
100
AcDbLine
 10
7.90625
 20
38.09031143298672
 30
0.0
 11
7.90625
 21
37.62131143298672
 31
0.0
  0
LINE
  5
E8
330
1F
100
AcDbEntity
  8
VISIBLE
100
AcDbLine
 10
11.10225
 20
38.09031143298672
 30
0.0
 11
7.90625
 21
38.09031143298672
 31
0.0
  0
LINE
  5
E9
330
1F
100
AcDbEntity
  8
VISIBLE
100
AcDbLine
 10
11.10225
 20
37.62131143298672
 30
0.0
 11
11.10225
 21
38.09031143298672
 31
0.0
  0
ARC
  5
EA
330
1F
100
AcDbEntity
  8
VISIBLE
100
AcDbCircle
 10
11.25225000000001
 20
37.62131143298672
 30
0.0
 40
0.1500000000000002
100
AcDbArc
 50
180.0
 51
340.5287793655075
  0
ARC
  5
EB
330
1F
100
AcDbEntity
  8
VISIBLE
100
AcDbCircle
 10
11.46438203435597
 20
37.54631143298672
 30
0.0
 40
0.0750000000000019
100
AcDbArc
 50
90.0
 51
160.5287793655112
  0
LINE
  5
EC
330
1F
100
AcDbEntity
  8
VISIBLE
100
AcDbLine
 10
13.96811796564404
 20
37.62131143298672
 30
0.0
 11
11.46438203435597
 21
37.62131143298672
 31
0.0
  0
ARC
  5
ED
330
1F
100
AcDbEntity
  8
VISIBLE
100
AcDbCircle
 10
13.96811796564405
 20
37.54631143298673
 30
0.0
 40
0.0749999999999914
100
AcDbArc
 50
19.47122063448594
 51
90.00000000000813
  0
ARC
  5
EE
330
1F
100
AcDbEntity
  8
VISIBLE
100
AcDbCircle
 10
14.18025
 20
37.62131143298672
 30
0.0
 40
0.1500000000000002
100
AcDbArc
 50
199.4712206344925
 51
0.0
  0
LINE
  5
EF
330
1F
100
AcDbEntity
  8
VISIBLE
100
AcDbLine
 10
14.33025
 20
38.09031143298672
 30
0.0
 11
14.33025
 21
37.62131143298672
 31
0.0
  0
LINE
  5
F0
330
1F
100
AcDbEntity
  8
VISIBLE
100
AcDbLine
 10
17.52625
 20
38.09031143298672
 30
0.0
 11
14.33025
 21
38.09031143298672
 31
0.0
  0
LINE
  5
F1
330
1F
100
AcDbEntity
  8
VISIBLE
100
AcDbLine
 10
17.52625
 20
37.62131143298672
 30
0.0
 11
17.52625
 21
38.09031143298672
 31
0.0
  0
ARC
  5
F2
330
1F
100
AcDbEntity
  8
VISIBLE
100
AcDbCircle
 10
17.67625000000001
 20
37.62131143298672
 30
0.0
 40
0.1499999999999998
100
AcDbArc
 50
180.0
 51
340.5287793655077
  0
ARC
  5
F3
330
1F
100
AcDbEntity
  8
VISIBLE
100
AcDbCircle
 10
17.88838203435598
 20
37.54631143298671
 30
0.0
 40
0.0750000000000087
100
AcDbArc
 50
90.00000000000543
 51
160.5287793655061
  0
LINE
  5
F4
330
1F
100
AcDbEntity
  8
VISIBLE
100
AcDbLine
 10
20.39211796564404
 20
37.62131143298672
 30
0.0
 11
17.88838203435597
 21
37.62131143298672
 31
0.0
  0
ARC
  5
F5
330
1F
100
AcDbEntity
  8
VISIBLE
100
AcDbCircle
 10
20.39211796564405
 20
37.54631143298673
 30
0.0
 40
0.0749999999999919
100
AcDbArc
 50
19.4712206344873
 51
90.00000000001087
  0
ARC
  5
F6
330
1F
100
AcDbEntity
  8
VISIBLE
100
AcDbCircle
 10
20.60425
 20
37.62131143298672
 30
0.0
 40
0.1500000000000002
100
AcDbArc
 50
199.4712206344948
 51
0.0
  0
LINE
  5
F7
330
1F
100
AcDbEntity
  8
VISIBLE
100
AcDbLine
 10
20.75425000000001
 20
38.09031143298672
 30
0.0
 11
20.75425000000001
 21
37.62131143298672
 31
0.0
  0
LINE
  5
F8
330
1F
100
AcDbEntity
  8
VISIBLE
100
AcDbLine
 10
23.68625000000001
 20
38.09031143298672
 30
0.0
 11
20.75425000000001
 21
38.09031143298672
 31
0.0
  0
ARC
  5
F9
330
1F
100
AcDbEntity
  8
VISIBLE
100
AcDbCircle
 10
23.68625
 20
38.06031143298673
 30
0.0
 40
0.0299999999999972
100
AcDbArc
 50
0.000000000000175
 51
89.99999999998644
  0
LINE
  5
FA
330
1F
100
AcDbEntity
  8
VISIBLE
100
AcDbLine
 10
23.71625
 20
31.74956143298673
 30
0.0
 11
23.71625
 21
38.06031143298673
 31
0.0
  0
LINE
  5
FB
330
1F
100
AcDbEntity
  8
VISIBLE
100
AcDbLine
 10
23.24725000000001
 20
31.74956143298672
 30
0.0
 11
23.71625
 21
31.74956143298673
 31
0.0
  0
ARC
  5
FC
330
1F
100
AcDbEntity
  8
VISIBLE
100
AcDbCircle
 10
23.24725000000001
 20
31.59956143298673
 30
0.0
 40
0.1499999999999997
100
AcDbArc
 50
90.0
 51
250.5287793655103
  0
ARC
  5
FD
330
1F
100
AcDbEntity
  8
VISIBLE
100
AcDbCircle
 10
23.17225000000001
 20
31.38742939863076
 30
0.0
 40
0.0749999999999965
100
AcDbArc
 50
0.00000000000007
 51
70.52877936551542
  0
LINE
  5
FE
330
1F
100
AcDbEntity
  8
VISIBLE
100
AcDbLine
 10
23.24725000000001
 20
27.86319346734269
 30
0.0
 11
23.24725000000001
 21
31.38742939863076
 31
0.0
  0
ARC
  5
FF
330
1F
100
AcDbEntity
  8
VISIBLE
100
AcDbCircle
 10
23.17225000000001
 20
27.86319346734269
 30
0.0
 40
0.0750000000000024
100
AcDbArc
 50
289.4712206344948
 51
0.00000000000007
  0
ARC
  5
100
330
1F
100
AcDbEntity
  8
VISIBLE
100
AcDbCircle
 10
23.24725000000001
 20
27.65106143298672
 30
0.0
 40
0.15
100
AcDbArc
 50
109.4712206344897
 51
270.0
  0
LINE
  5
101
330
1F
100
AcDbEntity
  8
VISIBLE
100
AcDbLine
 10
23.71625
 20
27.50106143298672
 30
0.0
 11
23.24725000000001
 21
27.50106143298672
 31
0.0
  0
LINE
  5
102
330
1F
100
AcDbEntity
  8
VISIBLE
100
AcDbLine
 10
23.71625
 20
23.05206143298672
 30
0.0
 11
23.71625
 21
27.50106143298672
 31
0.0
  0
LINE
  5
103
330
1F
100
AcDbEntity
  8
VISIBLE
100
AcDbLine
 10
23.22425
 20
23.05206143298672
 30
0.0
 11
23.71625
 21
23.05206143298672
 31
0.0
  0
ARC
  5
104
330
1F
100
AcDbEntity
  8
VISIBLE
100
AcDbCircle
 10
23.22425
 20
22.90206143298673
 30
0.0
 40
0.1499999999999995
100
AcDbArc
 50
90.0
 51
256.6375036787655
  0
ARC
  5
105
330
1F
100
AcDbEntity
  8
VISIBLE
100
AcDbCircle
 10
23.17225000000001
 20
22.68315277623692
 30
0.0
 40
0.0750000000000033
100
AcDbArc
 50
0.000000000002715
 51
76.6375036787659
  0
LINE
  5
106
330
1F
100
AcDbEntity
  8
VISIBLE
100
AcDbLine
 10
23.24725000000001
 20
19.16569346734268
 30
0.0
 11
23.24725000000001
 21
22.68315277623692
 31
0.0
  0
ARC
  5
107
330
1F
100
AcDbEntity
  8
VISIBLE
100
AcDbCircle
 10
23.17225
 20
19.16569346734268
 30
0.0
 40
0.0750000000000042
100
AcDbArc
 50
289.4712206345
 51
0.00000000000007
  0
ARC
  5
108
330
1F
100
AcDbEntity
  8
VISIBLE
100
AcDbCircle
 10
23.24725000000001
 20
18.95356143298672
 30
0.0
 40
0.1499999999999998
100
AcDbArc
 50
109.4712206344897
 51
270.0
  0
LINE
  5
109
330
1F
100
AcDbEntity
  8
VISIBLE
100
AcDbLine
 10
23.71625
 20
18.80356143298673
 30
0.0
 11
23.24725000000001
 21
18.80356143298673
 31
0.0
  0
LINE
  5
10A
330
1F
100
AcDbEntity
  8
VISIBLE
100
AcDbLine
 10
23.71625
 20
14.35456143298672
 30
0.0
 11
23.71625
 21
18.80356143298673
 31
0.0
  0
LINE
  5
10B
330
1F
100
AcDbEntity
  8
VISIBLE
100
AcDbLine
 10
23.22425
 20
14.35456143298672
 30
0.0
 11
23.71625
 21
14.35456143298672
 31
0.0
  0
ARC
  5
10C
330
1F
100
AcDbEntity
  8
VISIBLE
100
AcDbCircle
 10
23.22425
 20
14.20456143298672
 30
0.0
 40
0.1499999999999994
100
AcDbArc
 50
90.0
 51
256.6375036787655
  0
ARC
  5
10D
330
1F
100
AcDbEntity
  8
VISIBLE
100
AcDbCircle
 10
23.17225000000001
 20
13.98565277623692
 30
0.0
 40
0.0750000000000039
100
AcDbArc
 50
0.0000000000013588
 51
76.63750367876621
  0
LINE
  5
10E
330
1F
100
AcDbEntity
  8
VISIBLE
100
AcDbLine
 10
23.24725000000001
 20
10.46819346734268
 30
0.0
 11
23.24725000000001
 21
13.98565277623692
 31
0.0
  0
ARC
  5
10F
330
1F
100
AcDbEntity
  8
VISIBLE
100
AcDbCircle
 10
23.17225000000001
 20
10.46819346734268
 30
0.0
 40
0.0750000000000033
100
AcDbArc
 50
289.4712206344943
 51
0.0000000000013588
  0
ARC
  5
110
330
1F
100
AcDbEntity
  8
VISIBLE
100
AcDbCircle
 10
23.24725000000001
 20
10.25606143298672
 30
0.0
 40
0.1499999999999999
100
AcDbArc
 50
109.4712206344895
 51
270.0
  0
LINE
  5
111
330
1F
100
AcDbEntity
  8
VISIBLE
100
AcDbLine
 10
23.71625
 20
10.10606143298672
 30
0.0
 11
23.24725000000001
 21
10.10606143298671
 31
0.0
  0
LINE
  5
112
330
1F
100
AcDbEntity
  8
VISIBLE
100
AcDbLine
 10
23.71625
 20
3.795311432986722
 30
0.0
 11
23.71625
 21
10.10606143298672
 31
0.0
  0
ARC
  5
113
330
1F
100
AcDbEntity
  8
VISIBLE
100
AcDbCircle
 10
23.68625000000001
 20
3.795311432986715
 30
0.0
 40
0.0299999999999946
100
AcDbArc
 50
270.0000000000135
 51
359.9999999999957
  0
LINE
  5
114
330
1F
100
AcDbEntity
  8
VISIBLE
100
AcDbLine
 10
20.75425000000001
 20
3.765311432986721
 30
0.0
 11
23.68625000000002
 21
3.765311432986721
 31
0.0
  0
LINE
  5
115
330
1F
100
AcDbEntity
  8
VISIBLE
100
AcDbLine
 10
20.75425000000001
 20
4.25731143298672
 30
0.0
 11
20.75425000000001
 21
3.765311432986721
 31
0.0
  0
ARC
  5
116
330
1F
100
AcDbEntity
  8
VISIBLE
100
AcDbCircle
 10
20.60425000000001
 20
4.25731143298672
 30
0.0
 40
0.1500000000000002
100
AcDbArc
 50
359.9999999999993
 51
166.6375036787649
  0
ARC
  5
117
330
1F
100
AcDbEntity
  8
VISIBLE
100
AcDbCircle
 10
20.38534134325021
 20
4.309311432986722
 30
0.0
 40
0.0750000000000007
100
AcDbArc
 50
270.0
 51
346.6375036787659
  0
LINE
  5
118
330
1F
100
AcDbEntity
  8
VISIBLE
100
AcDbLine
 10
17.88838203435597
 20
4.234311432986722
 30
0.0
 11
20.38534134325021
 21
4.234311432986723
 31
0.0
  0
ARC
  5
119
330
1F
100
AcDbEntity
  8
VISIBLE
100
AcDbCircle
 10
17.88838203435597
 20
4.309311432986722
 30
0.0
 40
0.075
100
AcDbArc
 50
199.4712206344913
 51
270.0
  0
ARC
  5
11A
330
1F
100
AcDbEntity
  8
VISIBLE
100
AcDbCircle
 10
17.67625000000001
 20
4.234311432986723
 30
0.0
 40
0.15
100
AcDbArc
 50
19.47122063449066
 51
180.0
  0
LINE
  5
11B
330
1F
100
AcDbEntity
  8
VISIBLE
100
AcDbLine
 10
17.52625
 20
3.765311432986721
 30
0.0
 11
17.52625
 21
4.234311432986723
 31
0.0
  0
LINE
  5
11C
330
1F
100
AcDbEntity
  8
VISIBLE
100
AcDbLine
 10
14.33025
 20
3.765311432986721
 30
0.0
 11
17.52625
 21
3.765311432986721
 31
0.0
  0
LINE
  5
11D
330
1F
100
AcDbEntity
  8
VISIBLE
100
AcDbLine
 10
14.33025
 20
4.25731143298672
 30
0.0
 11
14.33025
 21
3.765311432986721
 31
0.0
  0
ARC
  5
11E
330
1F
100
AcDbEntity
  8
VISIBLE
100
AcDbCircle
 10
14.18025
 20
4.25731143298672
 30
0.0
 40
0.15
100
AcDbArc
 50
359.9999999999993
 51
166.6375036787649
  0
ARC
  5
11F
330
1F
100
AcDbEntity
  8
VISIBLE
100
AcDbCircle
 10
13.96134134325021
 20
4.309311432986723
 30
0.0
 40
0.0749999999999981
100
AcDbArc
 50
269.9999999999986
 51
346.6375036787639
  0
LINE
  5
120
330
1F
100
AcDbEntity
  8
VISIBLE
100
AcDbLine
 10
11.46438203435597
 20
4.234311432986724
 30
0.0
 11
13.96134134325021
 21
4.234311432986723
 31
0.0
  0
ARC
  5
121
330
1F
100
AcDbEntity
  8
VISIBLE
100
AcDbCircle
 10
11.46438203435597
 20
4.309311432986723
 30
0.0
 40
0.0749999999999993
100
AcDbArc
 50
199.471220634491
 51
270.0
  0
ARC
  5
122
330
1F
100
AcDbEntity
  8
VISIBLE
100
AcDbCircle
 10
11.25225
 20
4.234311432986723
 30
0.0
 40
0.15
100
AcDbArc
 50
19.47122063449066
 51
180.0
  0
LINE
  5
123
330
1F
100
AcDbEntity
  8
VISIBLE
100
AcDbLine
 10
11.10225
 20
3.765311432986721
 30
0.0
 11
11.10225
 21
4.234311432986723
 31
0.0
  0
LINE
  5
124
330
1F
100
AcDbEntity
  8
VISIBLE
100
AcDbLine
 10
7.90625
 20
3.765311432986721
 30
0.0
 11
11.10225
 21
3.765311432986721
 31
0.0
  0
LINE
  5
125
330
1F
100
AcDbEntity
  8
VISIBLE
100
AcDbLine
 10
7.906249999999999
 20
4.25731143298672
 30
0.0
 11
7.90625
 21
3.765311432986721
 31
0.0
  0
ARC
  5
126
330
1F
100
AcDbEntity
  8
VISIBLE
100
AcDbCircle
 10
7.756250000000001
 20
4.25731143298672
 30
0.0
 40
0.1499999999999999
100
AcDbArc
 50
359.9999999999993
 51
166.6375036787653
  0
ARC
  5
127
330
1F
100
AcDbEntity
  8
VISIBLE
100
AcDbCircle
 10
7.537341343250205
 20
4.309311432986722
 30
0.0
 40
0.074999999999998
100
AcDbArc
 50
270.0
 51
346.6375036787646
  0
LINE
  5
128
330
1F
100
AcDbEntity
  8
VISIBLE
100
AcDbLine
 10
5.040382034355964
 20
4.234311432986723
 30
0.0
 11
7.537341343250205
 21
4.234311432986725
 31
0.0
  0
ARC
  5
129
330
1F
100
AcDbEntity
  8
VISIBLE
100
AcDbCircle
 10
5.040382034355964
 20
4.309311432986724
 30
0.0
 40
0.0749999999999983
100
AcDbArc
 50
199.4712206344914
 51
270.0
  0
ARC
  5
12A
330
1F
100
AcDbEntity
  8
VISIBLE
100
AcDbCircle
 10
4.828250000000001
 20
4.234311432986723
 30
0.0
 40
0.1500000000000003
100
AcDbArc
 50
19.4712206344913
 51
180.0
  0
LINE
  5
12B
330
1F
100
AcDbEntity
  8
VISIBLE
100
AcDbLine
 10
4.67825
 20
3.765311432986721
 30
0.0
 11
4.678249999999998
 21
4.234311432986723
 31
0.0
  0
LINE
  5
12C
330
1F
100
AcDbEntity
  8
VISIBLE
100
AcDbLine
 10
1.746249999999993
 20
3.76531143298672
 30
0.0
 11
4.67825
 21
3.765311432986721
 31
0.0
  0
ARC
  5
12D
330
1F
100
AcDbEntity
  8
VISIBLE
100
AcDbCircle
 10
1.746249999999995
 20
3.795311432986715
 30
0.0
 40
0.0299999999999948
100
AcDbArc
 50
179.9999999999864
 51
269.9999999999966
  0
LINE
  5
12E
330
1F
100
AcDbEntity
  8
VISIBLE
100
AcDbLine
 10
1.71625
 20
10.10606143298672
 30
0.0
 11
1.71625
 21
3.795311432986722
 31
0.0
  0
LINE
  5
12F
330
1F
100
AcDbEntity
  8
VISIBLE
100
AcDbLine
 10
2.208249999999996
 20
10.10606143298672
 30
0.0
 11
1.71625
 21
10.10606143298672
 31
0.0
  0
ARC
  5
130
330
1F
100
AcDbEntity
  8
VISIBLE
100
AcDbCircle
 10
2.208249999999996
 20
10.25606143298672
 30
0.0
 40
0.15
100
AcDbArc
 50
270.0
 51
76.63750367876361
  0
ARC
  5
131
330
1F
100
AcDbEntity
  8
VISIBLE
100
AcDbCircle
 10
2.260250000000005
 20
10.47497008973651
 30
0.0
 40
0.0750000000000012
100
AcDbArc
 50
179.9999999999987
 51
256.6375036787629
  0
LINE
  5
132
330
1F
100
AcDbEntity
  8
VISIBLE
100
AcDbLine
 10
2.185249999999996
 20
13.99242939863076
 30
0.0
 11
2.18525
 21
10.47497008973651
 31
0.0
  0
ARC
  5
133
330
1F
100
AcDbEntity
  8
VISIBLE
100
AcDbCircle
 10
2.260249999999999
 20
13.99242939863076
 30
0.0
 40
0.0750000000000034
100
AcDbArc
 50
109.471220634491
 51
179.9999999999987
  0
ARC
  5
134
330
1F
100
AcDbEntity
  8
VISIBLE
100
AcDbCircle
 10
2.18525
 20
14.20456143298672
 30
0.0
 40
0.1499999999999994
100
AcDbArc
 50
289.4712206344897
 51
90.0
  0
LINE
  5
135
330
1F
100
AcDbEntity
  8
VISIBLE
100
AcDbLine
 10
1.71625
 20
14.35456143298672
 30
0.0
 11
2.18525
 21
14.35456143298672
 31
0.0
  0
LINE
  5
136
330
1F
100
AcDbEntity
  8
VISIBLE
100
AcDbLine
 10
1.71625
 20
18.80356143298673
 30
0.0
 11
1.71625
 21
14.35456143298672
 31
0.0
  0
LINE
  5
137
330
1F
100
AcDbEntity
  8
VISIBLE
100
AcDbLine
 10
2.208249999999996
 20
18.80356143298673
 30
0.0
 11
1.71625
 21
18.80356143298673
 31
0.0
  0
ARC
  5
138
330
1F
100
AcDbEntity
  8
VISIBLE
100
AcDbCircle
 10
2.208249999999996
 20
18.95356143298672
 30
0.0
 40
0.1499999999999994
100
AcDbArc
 50
270.0
 51
76.6375036787656
  0
ARC
  5
139
330
1F
100
AcDbEntity
  8
VISIBLE
100
AcDbCircle
 10
2.260249999999999
 20
19.17247008973652
 30
0.0
 40
0.0750000000000022
100
AcDbArc
 50
179.9999999999973
 51
256.6375036787633
  0
LINE
  5
13A
330
1F
100
AcDbEntity
  8
VISIBLE
100
AcDbLine
 10
2.18525
 20
22.68992939863076
 30
0.0
 11
2.18525
 21
19.17247008973652
 31
0.0
  0
ARC
  5
13B
330
1F
100
AcDbEntity
  8
VISIBLE
100
AcDbCircle
 10
2.260250000000001
 20
22.68992939863076
 30
0.0
 40
0.0750000000000006
100
AcDbArc
 50
109.4712206344932
 51
179.9999999999999
  0
ARC
  5
13C
330
1F
100
AcDbEntity
  8
VISIBLE
100
AcDbCircle
 10
2.185250000000002
 20
22.90206143298671
 30
0.0
 40
0.1499999999999993
100
AcDbArc
 50
289.4712206344909
 51
90.00000000000068
  0
LINE
  5
13D
330
1F
100
AcDbEntity
  8
VISIBLE
100
AcDbLine
 10
1.71625
 20
23.05206143298672
 30
0.0
 11
2.18525
 21
23.05206143298672
 31
0.0
  0
LINE
  5
13E
330
1F
100
AcDbEntity
  8
VISIBLE
100
AcDbLine
 10
1.71625
 20
27.50106143298672
 30
0.0
 11
1.71625
 21
23.05206143298672
 31
0.0
  0
LINE
  5
13F
330
1F
100
AcDbEntity
  8
VISIBLE
100
AcDbLine
 10
2.208249999999996
 20
27.50106143298672
 30
0.0
 11
1.71625
 21
27.50106143298672
 31
0.0
  0
ARC
  5
140
330
1F
100
AcDbEntity
  8
VISIBLE
100
AcDbCircle
 10
2.208249999999996
 20
27.65106143298673
 30
0.0
 40
0.1499999999999996
100
AcDbArc
 50
270.0
 51
76.63750367876426
  0
ARC
  5
141
330
1F
100
AcDbEntity
  8
VISIBLE
100
AcDbCircle
 10
2.260249999999996
 20
27.86997008973652
 30
0.0
 40
0.0750000000000017
100
AcDbArc
 50
179.9999999999973
 51
256.6375036787659
  0
LINE
  5
142
330
1F
100
AcDbEntity
  8
VISIBLE
100
AcDbLine
 10
2.18525
 20
31.38742939863076
 30
0.0
 11
2.185249999999996
 21
27.86997008973652
 31
0.0
  0
ARC
  5
143
330
1F
100
AcDbEntity
  8
VISIBLE
100
AcDbCircle
 10
2.260249999999989
 20
31.38742939863076
 30
0.0
 40
0.0749999999999976
100
AcDbArc
 50
109.4712206344859
 51
179.9999999999999
  0
ARC
  5
144
330
1F
100
AcDbEntity
  8
VISIBLE
100
AcDbCircle
 10
2.18525
 20
31.59956143298673
 30
0.0
 40
0.149999999999999
100
AcDbArc
 50
289.4712206344892
 51
90.0
  0
LINE
  5
145
330
1F
100
AcDbEntity
  8
VISIBLE
100
AcDbLine
 10
1.71625
 20
31.74956143298673
 30
0.0
 11
2.18525
 21
31.74956143298672
 31
0.0
  0
LINE
  5
146
330
1F
100
AcDbEntity
  8
VISIBLE
100
AcDbLine
 10
1.716250000000002
 20
38.06031143298673
 30
0.0
 11
1.71625
 21
31.74956143298673
 31
0.0
  0
ARC
  5
147
330
1F
100
AcDbEntity
  8
VISIBLE
100
AcDbCircle
 10
1.746250000000002
 20
38.06031143298673
 30
0.0
 40
0.0299999999999961
100
AcDbArc
 50
90.00000000001357
 51
179.9999999999998
  0
LINE
  5
148
330
1F
100
AcDbEntity
  8
VISIBLE
100
AcDbLine
 10
4.678249999999998
 20
38.09031143298672
 30
0.0
 11
1.746249999999995
 21
38.09031143298672
 31
0.0
  0
LINE
  5
149
330
1F
100
AcDbEntity
  8
TITLE_BLOCK
100
AcDbLine
 10
18.17304046498563
 20
0.5
 30
0.0
 11
18.17304046498563
 21
2.0
 31
0.0
  0
LINE
  5
14C
330
1F
100
AcDbEntity
  8
TITLE_BLOCK
100
AcDbLine
 10
18.17304046498563
 20
0.5
 30
0.0
 11
19.37304046498563
 21
0.5
 31
0.0
  0
LINE
  5
14D
330
1F
100
AcDbEntity
  8
TITLE_BLOCK
100
AcDbLine
 10
18.17304046498563
 20
0.7999999999999999
 30
0.0
 11
19.37304046498563
 21
0.7999999999999999
 31
0.0
  0
LINE
  5
14E
330
1F
100
AcDbEntity
  8
TITLE_BLOCK
100
AcDbLine
 10
18.17304046498563
 20
0.92
 30
0.0
 11
19.37304046498563
 21
0.92
 31
0.0
  0
LINE
  5
14F
330
1F
100
AcDbEntity
  8
TITLE_BLOCK
100
AcDbLine
 10
18.17304046498563
 20
1.124
 30
0.0
 11
19.37304046498563
 21
1.124
 31
0.0
  0
LINE
  5
150
330
1F
100
AcDbEntity
  8
TITLE_BLOCK
100
AcDbLine
 10
18.17304046498563
 20
1.298
 30
0.0
 11
19.37304046498563
 21
1.298
 31
0.0
  0
LINE
  5
151
330
1F
100
AcDbEntity
  8
TITLE_BLOCK
100
AcDbLine
 10
18.17304046498563
 20
2.0
 30
0.0
 11
19.37304046498563
 21
2.0
 31
0.0
  0
MTEXT
  5
152
330
1F
100
AcDbEntity
  8
TITLE_BLOCK
100
AcDbMText
 10
18.19944046498563
 20
1.9568
 30
0.0
 40
0.048
 41
1.176
 71
     1
 72
     1
  1
UNLESS OTHERWISE SPECIFIED, DIMENSIONS ARE IN INCHES
  7
ONSHAPE-STANDARD
  0
MTEXT
  5
154
330
1F
100
AcDbEntity
  8
TITLE_BLOCK
100
AcDbMText
 10
18.19944046498563
 20
1.7768
 30
0.0
 40
0.048
 41
0.5880000000000005
 71
     1
 72
     1
  1
    .XX = ±.0-^J  .XXX = ±.00-^J.XXXX = ±.000-
  7
ONSHAPE-STANDARD
  0
MTEXT
  5
155
330
1F
100
AcDbEntity
  8
TITLE_BLOCK
100
AcDbMText
 10
18.79680046498563
 20
1.78112
 30
0.0
 40
0.0432
 41
0.5879999999999996
 71
     1
 72
     1
  1
^JANGULAR = ± °^JFRACTIONAL = ±
  7
ONSHAPE-STANDARD
  0
MTEXT
  5
156
330
1F
100
AcDbEntity
  8
TITLE_BLOCK
100
AcDbMText
 10
18.19944046498563
 20
1.4888
 30
0.0
 40
0.048
 41
0.5880000000000005
 71
     1
 72
     1
  1
SURFACE FINISH
  7
ONSHAPE-STANDARD
  0
LINE
  5
157
330
1F
100
AcDbEntity
  8
TITLE_BLOCK
100
AcDbLine
 10
18.71304046498563
 20
1.418
 30
0.0
 11
18.74304046498563
 21
1.366038475772934
 31
0.0
  0
LINE
  5
158
330
1F
100
AcDbEntity
  8
TITLE_BLOCK
100
AcDbLine
 10
18.74304046498563
 20
1.366038475772934
 30
0.0
 11
18.80604046498563
 21
1.475157676649773
 31
0.0
  0
LINE
  5
159
330
1F
100
AcDbEntity
  8
TITLE_BLOCK
100
AcDbLine
 10
18.80604046498563
 20
1.475157676649773
 30
0.0
 11
18.87204046498563
 21
1.475157676649773
 31
0.0
  0
MTEXT
  5
15A
330
1F
100
AcDbEntity
  8
TITLE_BLOCK
100
AcDbMText
 10
18.77304046498563
 20
1.24184
 30
0.0
 40
0.0624
 41
1.176
 71
     2
 72
     1
  1
DO NOT SCALE DRAWING
  7
ONSHAPE-STANDARD
  0
MTEXT
  5
15B
330
1F
100
AcDbEntity
  8
TITLE_BLOCK
100
AcDbMText
 10
18.77304046498563
 20
1.0808
 30
0.0
 40
0.048
 41
1.176
 71
     2
 72
     1
  1
BREAK ALL SHARP EDGES AND REMOVE BURRS
  7
ONSHAPE-STANDARD
  0
CIRCLE
  5
15C
330
1F
100
AcDbEntity
  8
TITLE_BLOCK
100
AcDbCircle
 10
18.63804046498563
 20
0.6487999999999999
 30
0.0
 40
0.054
  0
CIRCLE
  5
15D
330
1F
100
AcDbEntity
  8
TITLE_BLOCK
100
AcDbCircle
 10
18.63804046498563
 20
0.6487999999999999
 30
0.0
 40
0.108
  0
LINE
  5
15E
330
1F
100
AcDbEntity
  8
TITLE_BLOCK
100
AcDbLine
 10
18.66504046498563
 20
0.6487999999999999
 30
0.0
 11
18.61104046498563
 21
0.6487999999999999
 31
0.0
  0
LINE
  5
15F
330
1F
100
AcDbEntity
  8
TITLE_BLOCK
100
AcDbLine
 10
18.63804046498563
 20
0.6758
 30
0.0
 11
18.63804046498563
 21
0.6217999999999999
 31
0.0
  0
LINE
  5
160
330
1F
100
AcDbEntity
  8
TITLE_BLOCK
100
AcDbLine
 10
18.69204046498563
 20
0.6487999999999999
 30
0.0
 11
18.77304046498563
 21
0.6487999999999999
 31
0.0
  0
LINE
  5
161
330
1F
100
AcDbEntity
  8
TITLE_BLOCK
100
AcDbLine
 10
18.63804046498563
 20
0.7028
 30
0.0
 11
18.63804046498563
 21
0.7837999999999999
 31
0.0
  0
LINE
  5
162
330
1F
100
AcDbEntity
  8
TITLE_BLOCK
100
AcDbLine
 10
18.58404046498563
 20
0.6487999999999999
 30
0.0
 11
18.50304046498563
 21
0.6487999999999999
 31
0.0
  0
LINE
  5
163
330
1F
100
AcDbEntity
  8
TITLE_BLOCK
100
AcDbLine
 10
18.63804046498563
 20
0.5948
 30
0.0
 11
18.63804046498563
 21
0.5137999999999999
 31
0.0
  0
LINE
  5
164
330
1F
100
AcDbEntity
  8
TITLE_BLOCK
100
AcDbLine
 10
19.01604046498563
 20
0.5408
 30
0.0
 11
19.01604046498563
 21
0.7567999999999999
 31
0.0
  0
LINE
  5
165
330
1F
100
AcDbEntity
  8
TITLE_BLOCK
100
AcDbLine
 10
19.01604046498563
 20
0.7567999999999999
 30
0.0
 11
18.80004046498563
 21
0.7028
 31
0.0
  0
LINE
  5
166
330
1F
100
AcDbEntity
  8
TITLE_BLOCK
100
AcDbLine
 10
18.80004046498563
 20
0.7028
 30
0.0
 11
18.80004046498563
 21
0.5948
 31
0.0
  0
LINE
  5
167
330
1F
100
AcDbEntity
  8
TITLE_BLOCK
100
AcDbLine
 10
18.80004046498563
 20
0.5948
 30
0.0
 11
19.01604046498563
 21
0.5408
 31
0.0
  0
LINE
  5
168
330
1F
100
AcDbEntity
  8
TITLE_BLOCK
100
AcDbLine
 10
18.93504046498563
 20
0.6487999999999999
 30
0.0
 11
19.02954046498563
 21
0.6487999999999999
 31
0.0
  0
LINE
  5
169
330
1F
100
AcDbEntity
  8
TITLE_BLOCK
100
AcDbLine
 10
18.91884046498563
 20
0.6487999999999999
 30
0.0
 11
18.89724046498563
 21
0.6487999999999999
 31
0.0
  0
LINE
  5
16A
330
1F
100
AcDbEntity
  8
TITLE_BLOCK
100
AcDbLine
 10
18.88104046498563
 20
0.6487999999999999
 30
0.0
 11
18.78654046498563
 21
0.6487999999999999
 31
0.0
  0
MTEXT
  5
16B
330
1F
100
AcDbEntity
  8
TITLE_BLOCK
100
AcDbMText
 10
18.77304046498563
 20
0.8768
 30
0.0
 40
0.048
 41
1.176
 71
     2
 72
     1
  1
THIRD ANGLE PROJECTION
  7
ONSHAPE-STANDARD
  0
LINE
  5
16C
330
1F
100
AcDbEntity
  8
TITLE_BLOCK
100
AcDbLine
 10
19.37304046498563
 20
0.5
 30
0.0
 11
19.37304046498563
 21
2.0
 31
0.0
  0
LINE
  5
16D
330
1F
100
AcDbEntity
  8
TITLE_BLOCK
100
AcDbLine
 10
19.97304046498563
 20
0.92
 30
0.0
 11
19.97304046498563
 21
2.0
 31
0.0
  0
LINE
  5
16E
330
1F
100
AcDbEntity
  8
TITLE_BLOCK
100
AcDbLine
 10
20.72304046498563
 20
0.92
 30
0.0
 11
20.72304046498563
 21
2.0
 31
0.0
  0
LINE
  5
16F
330
1F
100
AcDbEntity
  8
TITLE_BLOCK
100
AcDbLine
 10
20.27304046498563
 20
0.5
 30
0.0
 11
20.27304046498563
 21
0.92
 31
0.0
  0
LINE
  5
170
330
1F
100
AcDbEntity
  8
TITLE_BLOCK
100
AcDbLine
 10
19.37304046498563
 20
2.0
 30
0.0
 11
21.17304046498563
 21
2.0
 31
0.0
  0
LINE
  5
171
330
1F
100
AcDbEntity
  8
TITLE_BLOCK
100
AcDbLine
 10
19.37304046498563
 20
1.82
 30
0.0
 11
21.17304046498563
 21
1.82
 31
0.0
  0
LINE
  5
172
330
1F
100
AcDbEntity
  8
TITLE_BLOCK
100
AcDbLine
 10
19.37304046498563
 20
1.64
 30
0.0
 11
21.17304046498563
 21
1.64
 31
0.0
  0
LINE
  5
173
330
1F
100
AcDbEntity
  8
TITLE_BLOCK
100
AcDbLine
 10
19.37304046498563
 20
1.46
 30
0.0
 11
21.17304046498563
 21
1.46
 31
0.0
  0
LINE
  5
174
330
1F
100
AcDbEntity
  8
TITLE_BLOCK
100
AcDbLine
 10
19.37304046498563
 20
1.28
 30
0.0
 11
21.17304046498563
 21
1.28
 31
0.0
  0
LINE
  5
175
330
1F
100
AcDbEntity
  8
TITLE_BLOCK
100
AcDbLine
 10
19.37304046498563
 20
1.1
 30
0.0
 11
21.17304046498563
 21
1.1
 31
0.0
  0
LINE
  5
176
330
1F
100
AcDbEntity
  8
TITLE_BLOCK
100
AcDbLine
 10
19.37304046498563
 20
0.92
 30
0.0
 11
21.17304046498563
 21
0.92
 31
0.0
  0
MTEXT
  5
177
330
1F
100
AcDbEntity
  8
TITLE_BLOCK
100
AcDbMText
 10
19.99944046498563
 20
1.9568
 30
0.0
 40
0.048
 41
0.7349999999999991
 71
     1
 72
     1
  1
NAME
  7
ONSHAPE-STANDARD
  0
MTEXT
  5
178
330
1F
100
AcDbEntity
  8
TITLE_BLOCK
100
AcDbMText
 10
20.94804046498563
 20
1.9568
 30
0.0
 40
0.048
 41
0.4410000000000011
 71
     2
 72
     1
  1
DATE
  7
ONSHAPE-STANDARD
  0
MTEXT
  5
179
330
1F
100
AcDbEntity
  8
TITLE_BLOCK
100
AcDbMText
 10
19.39944046498563
 20
1.7768
 30
0.0
 40
0.048
 41
0.5880000000000005
 71
     1
 72
     1
  1
DRAWN
  7
ONSHAPE-STANDARD
  0
MTEXT
  5
17A
102
{ACAD_XDICTIONARY
360
17B
102
}
330
1F
100
AcDbEntity
  8
TITLE_BLOCK
100
AcDbMText
 10
20.34804046498563
 20
1.73
 30
0.0
 40
0.04032
 41
0.7499999999999991
 71
     5
 72
     1
  1
JASON CANTARELLA
  7
ONSHAPE-STANDARD-FIELDS
1001
ACAD
1000
ACAD_MTEXT_DEFINED_HEIGHT_BEGIN
1070
    46
1040
0.1800000000000002
1000
ACAD_MTEXT_DEFINED_HEIGHT_END
  0
MTEXT
  5
181
102
{ACAD_XDICTIONARY
360
182
102
}
330
1F
100
AcDbEntity
  8
TITLE_BLOCK
100
AcDbMText
 10
20.94804046498563
 20
1.73
 30
0.0
 40
0.04032
 41
0.4500000000000011
 71
     5
 72
     1
  1
12/21/2023
  7
ONSHAPE-STANDARD-FIELDS
1001
ACAD
1000
ACAD_MTEXT_DEFINED_HEIGHT_BEGIN
1070
    46
1040
0.1800000000000002
1000
ACAD_MTEXT_DEFINED_HEIGHT_END
  0
MTEXT
  5
187
330
1F
100
AcDbEntity
  8
TITLE_BLOCK
100
AcDbMText
 10
19.39944046498563
 20
1.5968
 30
0.0
 40
0.048
 41
0.5880000000000005
 71
     1
 72
     1
  1
CHECKED
  7
ONSHAPE-STANDARD
  0
MTEXT
  5
188
330
1F
100
AcDbEntity
  8
TITLE_BLOCK
100
AcDbMText
 10
20.34804046498563
 20
1.55
 30
0.0
 40
0.04032
 41
0.7499999999999991
 71
     5
 72
     1
  1
 
  7
ONSHAPE-STANDARD-FIELDS
1001
ACAD
1000
ACAD_MTEXT_DEFINED_HEIGHT_BEGIN
1070
    46
1040
0.1800000000000002
1000
ACAD_MTEXT_DEFINED_HEIGHT_END
  0
MTEXT
  5
189
330
1F
100
AcDbEntity
  8
TITLE_BLOCK
100
AcDbMText
 10
20.94804046498563
 20
1.55
 30
0.0
 40
0.04032
 41
0.4500000000000011
 71
     5
 72
     1
  1
 
  7
ONSHAPE-STANDARD-FIELDS
1001
ACAD
1000
ACAD_MTEXT_DEFINED_HEIGHT_BEGIN
1070
    46
1040
0.1800000000000002
1000
ACAD_MTEXT_DEFINED_HEIGHT_END
  0
MTEXT
  5
18A
330
1F
100
AcDbEntity
  8
TITLE_BLOCK
100
AcDbMText
 10
19.39944046498563
 20
1.4168
 30
0.0
 40
0.048
 41
0.5880000000000005
 71
     1
 72
     1
  1
APPROVED
  7
ONSHAPE-STANDARD
  0
MTEXT
  5
18B
102
{ACAD_XDICTIONARY
360
18C
102
}
330
1F
100
AcDbEntity
  8
TITLE_BLOCK
100
AcDbMText
 10
20.34804046498563
 20
1.37
 30
0.0
 40
0.04032
 41
0.7499999999999991
 71
     5
 72
     1
  1
----
  7
ONSHAPE-STANDARD-FIELDS
1001
ACAD
1000
ACAD_MTEXT_DEFINED_HEIGHT_BEGIN
1070
    46
1040
0.1799999999999997
1000
ACAD_MTEXT_DEFINED_HEIGHT_END
  0
MTEXT
  5
191
102
{ACAD_XDICTIONARY
360
192
102
}
330
1F
100
AcDbEntity
  8
TITLE_BLOCK
100
AcDbMText
 10
20.94804046498563
 20
1.37
 30
0.0
 40
0.04032
 41
0.4500000000000011
 71
     5
 72
     1
  1
----
  7
ONSHAPE-STANDARD-FIELDS
1001
ACAD
1000
ACAD_MTEXT_DEFINED_HEIGHT_BEGIN
1070
    46
1040
0.1799999999999997
1000
ACAD_MTEXT_DEFINED_HEIGHT_END
  0
MTEXT
  5
197
330
1F
100
AcDbEntity
  8
TITLE_BLOCK
100
AcDbMText
 10
19.67304046498563
 20
1.19
 30
0.0
 40
0.072
 41
0.6000000000000005
 71
     5
 72
     1
  1
 
  7
ONSHAPE-STANDARD-FIELDS
1001
ACAD
1000
ACAD_MTEXT_DEFINED_HEIGHT_BEGIN
1070
    46
1040
0.1800000000000002
1000
ACAD_MTEXT_DEFINED_HEIGHT_END
  0
MTEXT
  5
198
330
1F
100
AcDbEntity
  8
TITLE_BLOCK
100
AcDbMText
 10
20.34804046498563
 20
1.19
 30
0.0
 40
0.04032
 41
0.7499999999999991
 71
     5
 72
     1
  1
 
  7
ONSHAPE-STANDARD-FIELDS
1001
ACAD
1000
ACAD_MTEXT_DEFINED_HEIGHT_BEGIN
1070
    46
1040
0.1800000000000002
1000
ACAD_MTEXT_DEFINED_HEIGHT_END
  0
MTEXT
  5
199
330
1F
100
AcDbEntity
  8
TITLE_BLOCK
100
AcDbMText
 10
20.94804046498563
 20
1.19
 30
0.0
 40
0.04032
 41
0.4500000000000011
 71
     5
 72
     1
  1
 
  7
ONSHAPE-STANDARD-FIELDS
1001
ACAD
1000
ACAD_MTEXT_DEFINED_HEIGHT_BEGIN
1070
    46
1040
0.1800000000000002
1000
ACAD_MTEXT_DEFINED_HEIGHT_END
  0
MTEXT
  5
19A
330
1F
100
AcDbEntity
  8
TITLE_BLOCK
100
AcDbMText
 10
19.67304046498563
 20
1.01
 30
0.0
 40
0.072
 41
0.6000000000000005
 71
     5
 72
     1
  1
 
  7
ONSHAPE-STANDARD-FIELDS
1001
ACAD
1000
ACAD_MTEXT_DEFINED_HEIGHT_BEGIN
1070
    46
1040
0.1799999999999999
1000
ACAD_MTEXT_DEFINED_HEIGHT_END
  0
MTEXT
  5
19B
330
1F
100
AcDbEntity
  8
TITLE_BLOCK
100
AcDbMText
 10
20.34804046498563
 20
1.01
 30
0.0
 40
0.04032
 41
0.7499999999999991
 71
     5
 72
     1
  1
 
  7
ONSHAPE-STANDARD-FIELDS
1001
ACAD
1000
ACAD_MTEXT_DEFINED_HEIGHT_BEGIN
1070
    46
1040
0.1799999999999999
1000
ACAD_MTEXT_DEFINED_HEIGHT_END
  0
MTEXT
  5
19C
330
1F
100
AcDbEntity
  8
TITLE_BLOCK
100
AcDbMText
 10
20.94804046498563
 20
1.01
 30
0.0
 40
0.04032
 41
0.4500000000000011
 71
     5
 72
     1
  1
 
  7
ONSHAPE-STANDARD-FIELDS
1001
ACAD
1000
ACAD_MTEXT_DEFINED_HEIGHT_BEGIN
1070
    46
1040
0.1799999999999999
1000
ACAD_MTEXT_DEFINED_HEIGHT_END
  0
MTEXT
  5
19D
330
1F
100
AcDbEntity
  8
TITLE_BLOCK
100
AcDbMText
 10
19.39944046498563
 20
0.8768
 30
0.0
 40
0.048
 41
0.8820000000000003
 71
     1
 72
     1
  1
MATERIAL
  7
ONSHAPE-STANDARD
  0
MTEXT
  5
19E
330
1F
100
AcDbEntity
  8
TITLE_BLOCK
100
AcDbMText
 10
19.82304046498563
 20
0.7100000000000001
 30
0.0
 40
0.072
 41
0.9000000000000004
 71
     5
 72
     1
  1
 
  7
ONSHAPE-STANDARD-FIELDS
1001
ACAD
1000
ACAD_MTEXT_DEFINED_HEIGHT_BEGIN
1070
    46
1040
0.42
1000
ACAD_MTEXT_DEFINED_HEIGHT_END
  0
MTEXT
  5
19F
330
1F
100
AcDbEntity
  8
TITLE_BLOCK
100
AcDbMText
 10
20.29944046498563
 20
0.8768
 30
0.0
 40
0.048
 41
0.8820000000000003
 71
     1
 72
     1
  1
FINISH
  7
ONSHAPE-STANDARD
  0
MTEXT
  5
1A0
330
1F
100
AcDbEntity
  8
TITLE_BLOCK
100
AcDbMText
 10
20.72304046498563
 20
0.7100000000000001
 30
0.0
 40
0.072
 41
0.9000000000000004
 71
     5
 72
     1
  1
 
  7
ONSHAPE-STANDARD-FIELDS
1001
ACAD
1000
ACAD_MTEXT_DEFINED_HEIGHT_BEGIN
1070
    46
1040
0.42
1000
ACAD_MTEXT_DEFINED_HEIGHT_END
  0
LINE
  5
1A1
330
1F
100
AcDbEntity
  8
TITLE_BLOCK
100
AcDbLine
 10
21.17304046498563
 20
0.5
 30
0.0
 11
21.17304046498563
 21
2.0
 31
0.0
  0
LINE
  5
1A2
330
1F
100
AcDbEntity
  8
TITLE_BLOCK
100
AcDbLine
 10
21.54804046498563
 20
0.695
 30
0.0
 11
21.54804046498563
 21
0.995
 31
0.0
  0
LINE
  5
1A3
330
1F
100
AcDbEntity
  8
TITLE_BLOCK
100
AcDbLine
 10
21.83304046498563
 20
0.5
 30
0.0
 11
21.83304046498563
 21
0.695
 31
0.0
  0
LINE
  5
1A4
330
1F
100
AcDbEntity
  8
TITLE_BLOCK
100
AcDbLine
 10
23.19804046498563
 20
0.5
 30
0.0
 11
23.19804046498563
 21
0.695
 31
0.0
  0
LINE
  5
1A5
330
1F
100
AcDbEntity
  8
TITLE_BLOCK
100
AcDbLine
 10
23.94804046498563
 20
0.695
 30
0.0
 11
23.94804046498563
 21
0.995
 31
0.0
  0
LINE
  5
1A6
330
1F
100
AcDbEntity
  8
TITLE_BLOCK
100
AcDbLine
 10
21.17304046498563
 20
0.695
 30
0.0
 11
24.24804046498563
 21
0.695
 31
0.0
  0
LINE
  5
1A7
330
1F
100
AcDbEntity
  8
TITLE_BLOCK
100
AcDbLine
 10
21.17304046498563
 20
0.995
 30
0.0
 11
24.24804046498563
 21
0.995
 31
0.0
  0
LINE
  5
1A8
330
1F
100
AcDbEntity
  8
TITLE_BLOCK
100
AcDbLine
 10
21.17304046498563
 20
1.625
 30
0.0
 11
24.24804046498563
 21
1.625
 31
0.0
  0
LINE
  5
1A9
330
1F
100
AcDbEntity
  8
TITLE_BLOCK
100
AcDbLine
 10
21.17304046498563
 20
2.0
 30
0.0
 11
24.24804046498563
 21
2.0
 31
0.0
  0
MTEXT
  5
1AA
330
1F
100
AcDbEntity
  8
TITLE_BLOCK
100
AcDbMText
 10
21.19944046498563
 20
1.5818
 30
0.0
 40
0.048
 41
0.3675
 71
     1
 72
     1
  1
TITLE
  7
ONSHAPE-STANDARD
  0
MTEXT
  5
1AB
102
{ACAD_XDICTIONARY
360
1AC
102
}
330
1F
100
AcDbEntity
  8
TITLE_BLOCK
100
AcDbMText
 10
22.71054046498563
 20
1.505
 30
0.0
 40
0.1152
 41
2.774999999999999
 71
     5
 72
     1
  1
----
  7
ONSHAPE-STANDARD-FIELDS
1001
ACAD
1000
ACAD_MTEXT_DEFINED_HEIGHT_BEGIN
1070
    46
1040
0.189
1000
ACAD_MTEXT_DEFINED_HEIGHT_END
  0
MTEXT
  5
1B1
102
{ACAD_XDICTIONARY
360
1B2
102
}
330
1F
100
AcDbEntity
  8
TITLE_BLOCK
100
AcDbMText
 10
22.71054046498563
 20
1.316
 30
0.0
 40
0.1152
 41
2.774999999999999
 71
     5
 72
     1
  1
----
  7
ONSHAPE-STANDARD-FIELDS
1001
ACAD
1000
ACAD_MTEXT_DEFINED_HEIGHT_BEGIN
1070
    46
1040
0.189
1000
ACAD_MTEXT_DEFINED_HEIGHT_END
  0
MTEXT
  5
1B7
102
{ACAD_XDICTIONARY
360
1B8
102
}
330
1F
100
AcDbEntity
  8
TITLE_BLOCK
100
AcDbMText
 10
22.71054046498563
 20
1.127
 30
0.0
 40
0.1152
 41
2.774999999999999
 71
     5
 72
     1
  1
----
  7
ONSHAPE-STANDARD-FIELDS
1001
ACAD
1000
ACAD_MTEXT_DEFINED_HEIGHT_BEGIN
1070
    46
1040
0.189
1000
ACAD_MTEXT_DEFINED_HEIGHT_END
  0
MTEXT
  5
1BD
330
1F
100
AcDbEntity
  8
TITLE_BLOCK
100
AcDbMText
 10
21.19416046498563
 20
0.96044
 30
0.0
 40
0.0384
 41
0.3675
 71
     1
 72
     1
  1
SIZE
  7
ONSHAPE-STANDARD
  0
MTEXT
  5
1BE
102
{ACAD_XDICTIONARY
360
1BF
102
}
330
1F
100
AcDbEntity
  8
TITLE_BLOCK
100
AcDbMText
 10
21.36054046498563
 20
0.845
 30
0.0
 40
0.144
 41
0.375
 71
     5
 72
     1
  1
 
  7
ONSHAPE-STANDARD-FIELDS
1001
ACAD
1000
ACAD_MTEXT_DEFINED_HEIGHT_BEGIN
1070
    46
1040
0.3
1000
ACAD_MTEXT_DEFINED_HEIGHT_END
  0
MTEXT
  5
1C4
330
1F
100
AcDbEntity
  8
TITLE_BLOCK
100
AcDbMText
 10
21.56916046498563
 20
0.96044
 30
0.0
 40
0.0384
 41
2.351999999999999
 71
     1
 72
     1
  1
DWG NO.
  7
ONSHAPE-STANDARD
  0
MTEXT
  5
1C5
102
{ACAD_XDICTIONARY
360
1C6
102
}
330
1F
100
AcDbEntity
  8
TITLE_BLOCK
100
AcDbMText
 10
22.74804046498563
 20
0.845
 30
0.0
 40
0.144
 41
2.399999999999999
 71
     5
 72
     1
  1
----
  7
ONSHAPE-STANDARD-FIELDS
1001
ACAD
1000
ACAD_MTEXT_DEFINED_HEIGHT_BEGIN
1070
    46
1040
0.3
1000
ACAD_MTEXT_DEFINED_HEIGHT_END
  0
MTEXT
  5
1CB
330
1F
100
AcDbEntity
  8
TITLE_BLOCK
100
AcDbMText
 10
23.96916046498563
 20
0.96044
 30
0.0
 40
0.0384
 41
0.2940000000000007
 71
     1
 72
     1
  1
REV.
  7
ONSHAPE-STANDARD
  0
MTEXT
  5
1CC
102
{ACAD_XDICTIONARY
360
1CD
102
}
330
1F
100
AcDbEntity
  8
TITLE_BLOCK
100
AcDbMText
 10
24.11304046498563
 20
0.845
 30
0.0
 40
0.144
 41
0.2700000000000014
 71
     5
 72
     1
  1
-
  7
ONSHAPE-STANDARD-FIELDS
1001
ACAD
1000
ACAD_MTEXT_DEFINED_HEIGHT_BEGIN
1070
    46
1040
0.3
1000
ACAD_MTEXT_DEFINED_HEIGHT_END
  0
MTEXT
  5
1D2
330
1F
100
AcDbEntity
  8
TITLE_BLOCK
100
AcDbMText
 10
21.19416046498563
 20
0.6604399999999999
 30
0.0
 40
0.0384
 41
0.6467999999999984
 71
     1
 72
     1
  1
SCALE
  7
ONSHAPE-STANDARD
  0
MTEXT
  5
1D3
102
{ACAD_XDICTIONARY
360
1D4
102
}
330
1F
100
AcDbEntity
  8
TITLE_BLOCK
100
AcDbMText
 10
21.53304046498563
 20
0.5974999999999999
 30
0.0
 40
0.0864
 41
0.5999999999999988
 71
     5
 72
     1
  1
1:1
  7
ONSHAPE-STANDARD-FIELDS
1001
ACAD
1000
ACAD_MTEXT_DEFINED_HEIGHT_BEGIN
1070
    46
1040
0.195
1000
ACAD_MTEXT_DEFINED_HEIGHT_END
  0
MTEXT
  5
1D9
330
1F
100
AcDbEntity
  8
TITLE_BLOCK
100
AcDbMText
 10
21.85416046498563
 20
0.6604399999999999
 30
0.0
 40
0.0384
 41
1.3377
 71
     1
 72
     1
  1
WEIGHT
  7
ONSHAPE-STANDARD
  0
MTEXT
  5
1DA
330
1F
100
AcDbEntity
  8
TITLE_BLOCK
100
AcDbMText
 10
22.51554046498563
 20
0.5974999999999999
 30
0.0
 40
0.0864
 41
1.365
 71
     5
 72
     1
  1
 
  7
ONSHAPE-STANDARD-FIELDS
1001
ACAD
1000
ACAD_MTEXT_DEFINED_HEIGHT_BEGIN
1070
    46
1040
0.195
1000
ACAD_MTEXT_DEFINED_HEIGHT_END
  0
MTEXT
  5
1DB
330
1F
100
AcDbEntity
  8
TITLE_BLOCK
100
AcDbMText
 10
23.21916046498563
 20
0.6604399999999999
 30
0.0
 40
0.0384
 41
1.029000000000001
 71
     1
 72
     1
  1
SHEET
  7
ONSHAPE-STANDARD
  0
MTEXT
  5
1DC
102
{ACAD_XDICTIONARY
360
1DD
102
}
330
1F
100
AcDbEntity
  8
TITLE_BLOCK
100
AcDbMText
 10
23.75304046498563
 20
0.5974999999999999
 30
0.0
 40
0.0864
 41
0.9900000000000002
 71
     5
 72
     1
  1
1 of 1
  7
ONSHAPE-STANDARD-FIELDS
1001
ACAD
1000
ACAD_MTEXT_DEFINED_HEIGHT_BEGIN
1070
    46
1040
0.195
1000
ACAD_MTEXT_DEFINED_HEIGHT_END
  0
LINE
  5
1E2
330
1F
100
AcDbEntity
  8
BORDER_FRAME
100
AcDbLine
 10
1.24804046498563
 20
0.5
 30
0.0
 11
1.24804046498563
 21
39.5
 31
0.0
  0
LINE
  5
1E4
330
1F
100
AcDbEntity
  8
BORDER_FRAME
100
AcDbLine
 10
1.24804046498563
 20
39.5
 30
0.0
 11
24.24804046498563
 21
39.5
 31
0.0
  0
LINE
  5
1E5
330
1F
100
AcDbEntity
  8
BORDER_FRAME
100
AcDbLine
 10
24.24804046498563
 20
39.5
 30
0.0
 11
24.24804046498563
 21
0.5
 31
0.0
  0
LINE
  5
1E6
330
1F
100
AcDbEntity
  8
BORDER_FRAME
100
AcDbLine
 10
24.24804046498563
 20
0.5
 30
0.0
 11
1.24804046498563
 21
0.5
 31
0.0
  0
LINE
  5
1E7
330
1F
100
AcDbEntity
  8
BORDER_ZONES
100
AcDbLine
 10
6.74804046498563
 20
0.5
 30
0.0
 11
6.74804046498563
 21
0.025
 31
0.0
  0
LINE
  5
1E9
330
1F
100
AcDbEntity
  8
BORDER_ZONES
100
AcDbLine
 10
6.74804046498563
 20
39.5
 30
0.0
 11
6.74804046498563
 21
39.975
 31
0.0
  0
MTEXT
  5
1EA
330
1F
100
AcDbEntity
  8
BORDER_ZONES
100
AcDbMText
 10
3.74804046498563
 20
0.25
 30
0.0
 40
0.24
 41
0.0
 71
     5
 72
     1
  1
4
  7
ONSHAPE-STANDARD
  0
MTEXT
  5
1EB
330
1F
100
AcDbEntity
  8
BORDER_ZONES
100
AcDbMText
 10
3.74804046498563
 20
39.75
 30
0.0
 40
0.24
 41
0.0
 71
     5
 72
     1
  1
4
  7
ONSHAPE-STANDARD
  0
MTEXT
  5
1EC
330
1F
100
AcDbEntity
  8
BORDER_ZONES
100
AcDbMText
 10
9.74804046498563
 20
0.25
 30
0.0
 40
0.24
 41
0.0
 71
     5
 72
     1
  1
3
  7
ONSHAPE-STANDARD
  0
MTEXT
  5
1ED
330
1F
100
AcDbEntity
  8
BORDER_ZONES
100
AcDbMText
 10
9.74804046498563
 20
39.75
 30
0.0
 40
0.24
 41
0.0
 71
     5
 72
     1
  1
3
  7
ONSHAPE-STANDARD
  0
LINE
  5
1EE
330
1F
100
AcDbEntity
  8
BORDER_ZONES
100
AcDbLine
 10
12.74804046498563
 20
0.5
 30
0.0
 11
12.74804046498563
 21
0.025
 31
0.0
  0
LINE
  5
1EF
330
1F
100
AcDbEntity
  8
BORDER_ZONES
100
AcDbLine
 10
12.74804046498563
 20
39.5
 30
0.0
 11
12.74804046498563
 21
39.975
 31
0.0
  0
MTEXT
  5
1F0
330
1F
100
AcDbEntity
  8
BORDER_ZONES
100
AcDbMText
 10
15.74804046498563
 20
0.25
 30
0.0
 40
0.24
 41
0.0
 71
     5
 72
     1
  1
2
  7
ONSHAPE-STANDARD
  0
MTEXT
  5
1F1
330
1F
100
AcDbEntity
  8
BORDER_ZONES
100
AcDbMText
 10
15.74804046498563
 20
39.75
 30
0.0
 40
0.24
 41
0.0
 71
     5
 72
     1
  1
2
  7
ONSHAPE-STANDARD
  0
LINE
  5
1F2
330
1F
100
AcDbEntity
  8
BORDER_ZONES
100
AcDbLine
 10
18.74804046498563
 20
0.5
 30
0.0
 11
18.74804046498563
 21
0.025
 31
0.0
  0
LINE
  5
1F3
330
1F
100
AcDbEntity
  8
BORDER_ZONES
100
AcDbLine
 10
18.74804046498563
 20
39.5
 30
0.0
 11
18.74804046498563
 21
39.975
 31
0.0
  0
MTEXT
  5
1F4
330
1F
100
AcDbEntity
  8
BORDER_ZONES
100
AcDbMText
 10
21.74804046498563
 20
0.25
 30
0.0
 40
0.24
 41
0.0
 71
     5
 72
     1
  1
1
  7
ONSHAPE-STANDARD
  0
MTEXT
  5
1F5
330
1F
100
AcDbEntity
  8
BORDER_ZONES
100
AcDbMText
 10
21.74804046498563
 20
39.75
 30
0.0
 40
0.24
 41
0.0
 71
     5
 72
     1
  1
1
  7
ONSHAPE-STANDARD
  0
LINE
  5
1F6
330
1F
100
AcDbEntity
  8
BORDER_ZONES
100
AcDbLine
 10
1.24804046498563
 20
10.0
 30
0.0
 11
0.7730404649856301
 21
10.0
 31
0.0
  0
LINE
  5
1F7
330
1F
100
AcDbEntity
  8
BORDER_ZONES
100
AcDbLine
 10
24.24804046498563
 20
10.0
 30
0.0
 11
24.72304046498563
 21
10.0
 31
0.0
  0
MTEXT
  5
1F8
330
1F
100
AcDbEntity
  8
BORDER_ZONES
100
AcDbMText
 10
0.99804046498563
 20
5.0
 30
0.0
 40
0.24
 41
0.0
 71
     5
 72
     1
  1
A
  7
ONSHAPE-STANDARD
  0
MTEXT
  5
1F9
330
1F
100
AcDbEntity
  8
BORDER_ZONES
100
AcDbMText
 10
24.49804046498563
 20
5.0
 30
0.0
 40
0.24
 41
0.0
 71
     5
 72
     1
  1
A
  7
ONSHAPE-STANDARD
  0
MTEXT
  5
1FA
330
1F
100
AcDbEntity
  8
BORDER_ZONES
100
AcDbMText
 10
0.99804046498563
 20
15.0
 30
0.0
 40
0.24
 41
0.0
 71
     5
 72
     1
  1
B
  7
ONSHAPE-STANDARD
  0
MTEXT
  5
1FB
330
1F
100
AcDbEntity
  8
BORDER_ZONES
100
AcDbMText
 10
24.49804046498563
 20
15.0
 30
0.0
 40
0.24
 41
0.0
 71
     5
 72
     1
  1
B
  7
ONSHAPE-STANDARD
  0
LINE
  5
1FC
330
1F
100
AcDbEntity
  8
BORDER_ZONES
100
AcDbLine
 10
1.24804046498563
 20
20.0
 30
0.0
 11
0.7730404649856301
 21
20.0
 31
0.0
  0
LINE
  5
1FD
330
1F
100
AcDbEntity
  8
BORDER_ZONES
100
AcDbLine
 10
24.24804046498563
 20
20.0
 30
0.0
 11
24.72304046498563
 21
20.0
 31
0.0
  0
MTEXT
  5
1FE
330
1F
100
AcDbEntity
  8
BORDER_ZONES
100
AcDbMText
 10
0.99804046498563
 20
25.0
 30
0.0
 40
0.24
 41
0.0
 71
     5
 72
     1
  1
C
  7
ONSHAPE-STANDARD
  0
MTEXT
  5
1FF
330
1F
100
AcDbEntity
  8
BORDER_ZONES
100
AcDbMText
 10
24.49804046498563
 20
25.0
 30
0.0
 40
0.24
 41
0.0
 71
     5
 72
     1
  1
C
  7
ONSHAPE-STANDARD
  0
LINE
  5
200
330
1F
100
AcDbEntity
  8
BORDER_ZONES
100
AcDbLine
 10
1.24804046498563
 20
30.0
 30
0.0
 11
0.7730404649856301
 21
30.0
 31
0.0
  0
LINE
  5
201
330
1F
100
AcDbEntity
  8
BORDER_ZONES
100
AcDbLine
 10
24.24804046498563
 20
30.0
 30
0.0
 11
24.72304046498563
 21
30.0
 31
0.0
  0
MTEXT
  5
202
330
1F
100
AcDbEntity
  8
BORDER_ZONES
100
AcDbMText
 10
0.99804046498563
 20
35.0
 30
0.0
 40
0.24
 41
0.0
 71
     5
 72
     1
  1
D
  7
ONSHAPE-STANDARD
  0
MTEXT
  5
203
330
1F
100
AcDbEntity
  8
BORDER_ZONES
100
AcDbMText
 10
24.49804046498563
 20
35.0
 30
0.0
 40
0.24
 41
0.0
 71
     5
 72
     1
  1
D
  7
ONSHAPE-STANDARD
  0
MTEXT
  5
204
102
{ACAD_XDICTIONARY
360
205
102
}
330
1F
100
AcDbEntity
  8
ANNOTATION_TEXT
 62
     7
 60
     1
100
AcDbMText
 10
12.71625
 20
1.989061432986723
 30
0.0
 40
0.12
 41
0.0
 71
     2
 72
     1
  1

  7
ONSHAPE-STANDARD-VIEW-LABE
1001
ACAD
1000
ACAD_MTEXT_DEFINED_HEIGHT_BEGIN
1070
    46
1040
0.12
1000
ACAD_MTEXT_DEFINED_HEIGHT_END
  0
ENDSEC
  0
SECTION
  2
OBJECTS
  0
DICTIONARY
  5
C
330
0
100
AcDbDictionary
  3
ACAD_FIELDLIST
350
20A
  3
ACAD_GROUP
350
D
  3
ACAD_LAYOUT
350
1A
  3
ACAD_MATERIAL
350
43
  3
ACAD_MLEADERSTYLE
350
6B
  3
ACAD_MLINESTYLE
350
17
  3
ACAD_PLOTSETTINGS
350
19
  3
ACAD_SCALELIST
350
47
  3
ACAD_VISUALSTYLE
350
2A
  3
ACDBHEADERROUNDTRIPXREC
350
25C
  3
ACDBVARIABLEDICTIONARY
350
6E
  3
ONSHAPE_DATA
350
20C
  0
DICTIONARY
  5
283
330
8
100
AcDbDictionary
280
     1
  3
ACAD_XREC_ROUNDTRIP
360
284
  0
DICTIONARY
  5
17B
330
17A
100
AcDbDictionary
280
     1
  0
DICTIONARY
  5
182
330
181
100
AcDbDictionary
280
     1
  0
DICTIONARY
  5
18C
330
18B
100
AcDbDictionary
280
     1
  0
DICTIONARY
  5
192
330
191
100
AcDbDictionary
280
     1
  0
DICTIONARY
  5
1AC
330
1AB
100
AcDbDictionary
280
     1
  0
DICTIONARY
  5
1B2
330
1B1
100
AcDbDictionary
280
     1
  0
DICTIONARY
  5
1B8
330
1B7
100
AcDbDictionary
280
     1
  0
DICTIONARY
  5
1BF
330
1BE
100
AcDbDictionary
280
     1
  0
DICTIONARY
  5
1C6
330
1C5
100
AcDbDictionary
280
     1
  0
DICTIONARY
  5
1CD
330
1CC
100
AcDbDictionary
280
     1
  0
DICTIONARY
  5
1D4
330
1D3
100
AcDbDictionary
280
     1
  0
DICTIONARY
  5
1DD
330
1DC
100
AcDbDictionary
280
     1
  0
DICTIONARY
  5
205
330
204
100
AcDbDictionary
280
     1
  3
ONSHAPE_VIEW_ID
360
206
  0
ACAD_PROXY_OBJECT
  5
20A
102
{ACAD_REACTORS
330
C
102
}
330
C
100
AcDbProxyObject
 90
      499
 91
      509
 93
       11
310
4600
330
17E
330
17F
330
185
330
186
330
18F
330
190
330
195
330
196
330
1AF
330
1B0
330
1B5
330
1B6
330
1BB
330
1BC
330
1C2
330
1C3
330
1C9
330
1CA
330
1D0
330
1D1
330
1D7
330
1D8
330
1E0
330
1E1
 94
        0
  0
DICTIONARY
  5
D
102
{ACAD_REACTORS
330
C
102
}
330
C
100
AcDbDictionary
  0
DICTIONARY
  5
1A
102
{ACAD_REACTORS
330
C
102
}
330
C
100
AcDbDictionary
  0
DICTIONARY
  5
43
102
{ACAD_REACTORS
330
C
102
}
330
C
100
AcDbDictionary
  3
BYBLOCK
350
45
  3
BYLAYER
350
44
  3
GLOBAL
350
46
  0
DICTIONARY
  5
6B
102
{ACAD_REACTORS
330
C
102
}
330
C
100
AcDbDictionary
  3
STANDARD
350
6C
  0
DICTIONARY
  5
17
102
{ACAD_REACTORS
330
C
102
}
330
C
100
AcDbDictionary
  3
STANDARD
350
18
  0
DICTIONARY
  5
19
102
{ACAD_REACTORS
330
C
102
}
330
C
100
AcDbDictionary
  0
DICTIONARY
  5
47
102
{ACAD_REACTORS
330
C
102
}
330
C
100
AcDbDictionary
  3
A0
350
48
  3
A1
350
49
  3
A2
350
4A
  3
A3
350
4B
  3
A4
350
4C
  3
A5
350
4D
  3
A6
350
4E
  3
A7
350
4F
  3
A8
350
50
  3
A9
350
51
  3
B0
350
52
  3
B1
350
53
  3
B2
350
54
  3
B3
350
55
  3
B4
350
56
  3
B5
350
57
  3
B6
350
58
  3
B7
350
59
  3
B8
350
5A
  3
B9
350
5B
  3
C0
350
5C
  3
C1
350
5D
  3
C2
350
5E
  3
C3
350
5F
  3
C4
350
60
  3
C5
350
61
  3
C6
350
62
  3
C7
350
63
  3
C8
350
64
  3
C9
350
65
  3
D0
350
66
  3
D1
350
67
  3
D2
350
68
  0
DICTIONARY
  5
2A
102
{ACAD_REACTORS
330
C
102
}
330
C
100
AcDbDictionary
  3
2DWIREFRAME
350
2F
  3
BASIC
350
32
  3
BRIGHTEN
350
36
  3
COLORCHANGE
350
3A
  3
CONCEPTUAL
350
34
  3
DIM
350
35
  3
EDGECOLOROFF
350
3D
  3
FACEPATTERN
350
39
  3
FLAT
350
2B
  3
FLATWITHEDGES
350
2C
  3
GOURAUD
350
2D
  3
GOURAUDWITHEDGES
350
2E
  3
HIDDEN
350
31
  3
JITTEROFF
350
3B
  3
LINEPATTERN
350
38
  3
OVERHANGOFF
350
3C
  3
REALISTIC
350
33
  3
SHADED
350
42
  3
SHADED_WITH_EDGES
350
41
  3
SHADES_OF_GRAY
350
3E
  3
SKETCHY
350
3F
  3
THICKEN
350
37
  3
WIREFRAME
350
30
  3
X-RAY
350
40
  0
DICTIONARY
  5
25C
102
{ACAD_REACTORS
330
C
102
}
330
C
100
AcDbDictionary
  3
CEPSNID
350
266
  3
CEPSNTYPE
350
265
  3
DIMSTYLEDATA
350
27C
  3
FINGERPRINTGUID
350
267
  3
HYPERLINKBASE
350
25F
  3
INSUNITS
350
264
  3
LAYOUTDICT
350
261
  3
LWETCUNION
350
263
  3
PLOTSETDICT
350
262
  3
PSVPSCALE
350
269
  3
PUCSBASE
350
26C
  3
PUCSORGBACK
350
272
  3
PUCSORGBOTTOM
350
26E
  3
PUCSORGFRONT
350
271
  3
PUCSORGLEFT
350
26F
  3
PUCSORGRIGHT
350
270
  3
PUCSORGTOP
350
26D
  3
PUCSORTHOREF
350
26A
  3
PUCSORTHOVIEW
350
26B
  3
STYLESHEET
350
260
  3
TSTACKALIGN
350
25D
  3
TSTACKSIZE
350
25E
  3
UCSBASE
350
275
  3
UCSORGBACK
350
27B
  3
UCSORGBOTTOM
350
277
  3
UCSORGFRONT
350
27A
  3
UCSORGLEFT
350
278
  3
UCSORGRIGHT
350
279
  3
UCSORGTOP
350
276
  3
UCSORTHOREF
350
273
  3
UCSORTHOVIEW
350
274
  3
VERSIONGUID
350
268
  0
DICTIONARY
  5
6E
102
{ACAD_REACTORS
330
C
102
}
330
C
100
AcDbDictionary
  3
CANNOSCALE
350
285
  3
CMLEADERSTYLE
350
27E
  3
CTABLESTYLE
350
27D
  3
DIMASSOC
350
281
  3
HIDETEXT
350
282
  3
MSLTSCALE
350
286
  3
OLEFRAME
350
6F
  0
DICTIONARY
  5
20C
102
{ACAD_REACTORS
330
C
102
}
330
C
100
AcDbDictionary
280
     1
  3
DIM_UNITS
360
20D
  3
ONSHAPE_ANG_TOL_PRECISION
360
210
  3
ONSHAPE_JOGDIMENSION_LOCK_
360
212
  3
ONSHAPE_SHOWDIMENSIONSLINE
360
213
  3
ONSHAPE_UNDERLINEOVERRIDEN
360
211
  3
ONSHAPE_VSHARP_EXTENSION
360
20F
  3
ONSHAPE_WELD_STANDARD
360
20E
  0
XRECORD
  5
284
102
{ACAD_REACTORS
330
283
102
}
330
283
100
AcDbXrecord
102
VTR_0.000_0.000_1.000_1.000_VISUALSTYLE
340
2F
102
VTR_0.000_0.000_1.000_1.000_GRIDDISPLAY
 70
     3
102
VTR_0.000_0.000_1.000_1.000_GRIDMAJOR
 70
     5
102
VTR_0.000_0.000_1.000_1.000_DEFAULTLIGHTING
280
     1
102
VTR_0.000_0.000_1.000_1.000_DEFAULTLIGHTINGTYPE
 70
     1
102
VTR_0.000_0.000_1.000_1.000_BRIGHTNESS
141
0.0
102
VTR_0.000_0.000_1.000_1.000_CONTRAST
142
0.0
  0
XRECORD
  5
206
102
{ACAD_REACTORS
330
205
102
}
330
205
100
AcDbXrecord
330
0
  0
MATERIAL
  5
45
102
{ACAD_REACTORS
330
43
102
}
102
{ACAD_XDICTIONARY
360
289
102
}
330
43
100
AcDbMaterial
  1
BYBLOCK
  0
MATERIAL
  5
44
102
{ACAD_REACTORS
330
43
102
}
102
{ACAD_XDICTIONARY
360
287
102
}
330
43
100
AcDbMaterial
  1
BYLAYER
  0
MATERIAL
  5
46
102
{ACAD_REACTORS
330
43
102
}
102
{ACAD_XDICTIONARY
360
28B
102
}
330
43
100
AcDbMaterial
  1
GLOBAL
  0
ACAD_PROXY_OBJECT
  5
6C
102
{ACAD_REACTORS
330
6B
102
}
330
6B
100
AcDbProxyObject
 90
      499
 91
      505
 93
      610
310
40901902A4063FBFFFFFE056BD1B81E855B9FC0AD7A3703D0AD73F4214DD185B99185C9900AD7A3703D0AC73F90140501A02B5E8DC0F42B1CFC02B5E8DC0F42B1CFE5764000000000000300FC0
340
14
340
0
340
11
340
0
 94
        0
1001
ACAD_MLEADERVER
1070
     2
  0
MLINESTYLE
  5
18
102
{ACAD_REACTORS
330
17
102
}
330
17
100
AcDbMlineStyle
  2
Standard
 70
     0
  3

 62
   256
 51
90.0
 52
90.0
 71
     2
 49
0.5
 62
   256
  6
BYLAYER
 49
-0.5
 62
   256
  6
BYLAYER
  0
ACAD_PROXY_OBJECT
  5
48
102
{ACAD_REACTORS
330
47
102
}
330
47
100
AcDbProxyObject
 90
      499
 91
      503
 93
       41
310
903313A31580
  0
ACAD_PROXY_OBJECT
  5
49
102
{ACAD_REACTORS
330
47
102
}
330
47
100
AcDbProxyObject
 90
      499
 91
      503
 93
      105
310
903313A324000000000000004000
  0
ACAD_PROXY_OBJECT
  5
4A
102
{ACAD_REACTORS
330
47
102
}
330
47
100
AcDbProxyObject
 90
      499
 91
      503
 93
      105
310
903313A344000000000000104000
  0
ACAD_PROXY_OBJECT
  5
4B
102
{ACAD_REACTORS
330
47
102
}
330
47
100
AcDbProxyObject
 90
      499
 91
      503
 93
      105
310
903313A354000000000000144000
  0
ACAD_PROXY_OBJECT
  5
4C
102
{ACAD_REACTORS
330
47
102
}
330
47
100
AcDbProxyObject
 90
      499
 91
      503
 93
      105
310
903313A384000000000000204000
  0
ACAD_PROXY_OBJECT
  5
4D
102
{ACAD_REACTORS
330
47
102
}
330
47
100
AcDbProxyObject
 90
      499
 91
      503
 93
      113
310
904313A31304000000000000244000
  0
ACAD_PROXY_OBJECT
  5
4E
102
{ACAD_REACTORS
330
47
102
}
330
47
100
AcDbProxyObject
 90
      499
 91
      503
 93
      113
310
904313A31364000000000000304000
  0
ACAD_PROXY_OBJECT
  5
4F
102
{ACAD_REACTORS
330
47
102
}
330
47
100
AcDbProxyObject
 90
      499
 91
      503
 93
      113
310
904313A32304000000000000344000
  0
ACAD_PROXY_OBJECT
  5
50
102
{ACAD_REACTORS
330
47
102
}
330
47
100
AcDbProxyObject
 90
      499
 91
      503
 93
      113
310
904313A333040000000000003E4000
  0
ACAD_PROXY_OBJECT
  5
51
102
{ACAD_REACTORS
330
47
102
}
330
47
100
AcDbProxyObject
 90
      499
 91
      503
 93
      113
310
904313A34304000000000000444000
  0
ACAD_PROXY_OBJECT
  5
52
102
{ACAD_REACTORS
330
47
102
}
330
47
100
AcDbProxyObject
 90
      499
 91
      503
 93
      113
310
904313A35304000000000000494000
  0
ACAD_PROXY_OBJECT
  5
53
102
{ACAD_REACTORS
330
47
102
}
330
47
100
AcDbProxyObject
 90
      499
 91
      503
 93
      121
310
905313A3130304000000000000594000
  0
ACAD_PROXY_OBJECT
  5
54
102
{ACAD_REACTORS
330
47
102
}
330
47
100
AcDbProxyObject
 90
      499
 91
      503
 93
      105
310
903323A310000000000000010100
  0
ACAD_PROXY_OBJECT
  5
55
102
{ACAD_REACTORS
330
47
102
}
330
47
100
AcDbProxyObject
 90
      499
 91
      503
 93
      105
310
903343A310000000000000410100
  0
ACAD_PROXY_OBJECT
  5
56
102
{ACAD_REACTORS
330
47
102
}
330
47
100
AcDbProxyObject
 90
      499
 91
      503
 93
      105
310
903383A310000000000000810100
  0
ACAD_PROXY_OBJECT
  5
57
102
{ACAD_REACTORS
330
47
102
}
330
47
100
AcDbProxyObject
 90
      499
 91
      503
 93
      113
310
90431303A310000000000000910100
  0
ACAD_PROXY_OBJECT
  5
58
102
{ACAD_REACTORS
330
47
102
}
330
47
100
AcDbProxyObject
 90
      499
 91
      503
 93
      121
310
9053130303A310000000000001650100
  0
ACAD_PROXY_OBJECT
  5
59
102
{ACAD_REACTORS
330
47
102
}
330
47
100
AcDbProxyObject
 90
      499
 91
      503
 93
      257
310
90E312F31323822203D2031272D3022000000000000200FC000000000000284000
  0
ACAD_PROXY_OBJECT
  5
5A
102
{ACAD_REACTORS
330
47
102
}
330
47
100
AcDbProxyObject
 90
      499
 91
      503
 93
      249
310
90D312F363422203D2031272D3022000000000000240FC000000000000284000
  0
ACAD_PROXY_OBJECT
  5
5B
102
{ACAD_REACTORS
330
47
102
}
330
47
100
AcDbProxyObject
 90
      499
 91
      503
 93
      249
310
90D312F333222203D2031272D3022000000000000280FC000000000000284000
  0
ACAD_PROXY_OBJECT
  5
5C
102
{ACAD_REACTORS
330
47
102
}
330
47
100
AcDbProxyObject
 90
      499
 91
      503
 93
      249
310
90D312F313622203D2031272D30220000000000002C0FC000000000000284000
  0
ACAD_PROXY_OBJECT
  5
5D
102
{ACAD_REACTORS
330
47
102
}
330
47
100
AcDbProxyObject
 90
      499
 91
      503
 93
      249
310
90D332F333222203D2031272D30220000000000002E0FC000000000000284000
  0
ACAD_PROXY_OBJECT
  5
5E
102
{ACAD_REACTORS
330
47
102
}
330
47
100
AcDbProxyObject
 90
      499
 91
      503
 93
      241
310
90C312F3822203D2031272D3022000000000000300FC000000000000284000
  0
ACAD_PROXY_OBJECT
  5
5F
102
{ACAD_REACTORS
330
47
102
}
330
47
100
AcDbProxyObject
 90
      499
 91
      503
 93
      249
310
90D332F313622203D2031272D3022000000000000320FC000000000000284000
  0
ACAD_PROXY_OBJECT
  5
60
102
{ACAD_REACTORS
330
47
102
}
330
47
100
AcDbProxyObject
 90
      499
 91
      503
 93
      241
310
90C312F3422203D2031272D3022000000000000340FC000000000000284000
  0
ACAD_PROXY_OBJECT
  5
61
102
{ACAD_REACTORS
330
47
102
}
330
47
100
AcDbProxyObject
 90
      499
 91
      503
 93
      241
310
90C332F3822203D2031272D3022000000000000360FC000000000000284000
  0
ACAD_PROXY_OBJECT
  5
62
102
{ACAD_REACTORS
330
47
102
}
330
47
100
AcDbProxyObject
 90
      499
 91
      503
 93
      241
310
90C312F3222203D2031272D3022000000000000380FC000000000000284000
  0
ACAD_PROXY_OBJECT
  5
63
102
{ACAD_REACTORS
330
47
102
}
330
47
100
AcDbProxyObject
 90
      499
 91
      503
 93
      241
310
90C332F3422203D2031272D30220000000000003A0FC000000000000284000
  0
ACAD_PROXY_OBJECT
  5
64
102
{ACAD_REACTORS
330
47
102
}
330
47
100
AcDbProxyObject
 90
      499
 91
      503
 93
      161
310
90A3122203D2031272D30224000000000000284000
  0
ACAD_PROXY_OBJECT
  5
65
102
{ACAD_REACTORS
330
47
102
}
330
47
100
AcDbProxyObject
 90
      499
 91
      503
 93
      257
310
90E312D312F3222203D2031272D30220000000000003E0FC000000000000284000
  0
ACAD_PROXY_OBJECT
  5
66
102
{ACAD_REACTORS
330
47
102
}
330
47
100
AcDbProxyObject
 90
      499
 91
      503
 93
      225
310
90A3322203D2031272D302200000000000002100000000000000284000
  0
ACAD_PROXY_OBJECT
  5
67
102
{ACAD_REACTORS
330
47
102
}
330
47
100
AcDbProxyObject
 90
      499
 91
      503
 93
      225
310
90A3622203D2031272D302200000000000006100000000000000284000
  0
ACAD_PROXY_OBJECT
  5
68
102
{ACAD_REACTORS
330
47
102
}
330
47
100
AcDbProxyObject
 90
      499
 91
      503
 93
      249
310
90D31272D3022203D2031272D30220000000000000A100000000000000284000
  0
ACAD_PROXY_OBJECT
  5
2F
102
{ACAD_REACTORS
330
2A
102
}
330
2A
100
AcDbProxyObject
 90
      499
 91
      501
 93
      436
310
42CC9915DA5C99599C985B595049028333333333333E33F0000000000000F90107901411070040501600405405064090741402480A0340
1001
ACAD
1000
AcDbSavedByObjectVersion
1070
     0
  0
ACAD_PROXY_OBJECT
  5
32
102
{ACAD_REACTORS
330
2A
102
}
330
2A
100
AcDbProxyObject
 90
      499
 91
      501
 93
      388
310
4150985CDA58D07406404333333333333E33F0000000000000F90107A41107004050150841D405064090741402480A0350
1001
ACAD
1000
AcDbSavedByObjectVersion
1070
     0
  0
ACAD_PROXY_OBJECT
  5
36
102
{ACAD_REACTORS
330
2A
102
}
330
2A
100
AcDbProxyObject
 90
      499
 91
      501
 93
      428
310
42109C9A59DA1D195B90C409028333333333333E33F0000000000000F9010790141107004050150841D405064090741402480A029950
1001
ACAD
1000
AcDbSavedByObjectVersion
1070
     0
  0
ACAD_PROXY_OBJECT
  5
3A
102
{ACAD_REACTORS
330
2A
102
}
330
2A
100
AcDbProxyObject
 90
      499
 91
      501
 93
      452
310
42D0DBDB1BDC90DA185B99D95104090240C333333333333E33F0000000000000F90108901411070040501508421405064090741402480A0350
1001
ACAD
1000
AcDbSavedByObjectVersion
1070
     0
  0
ACAD_PROXY_OBJECT
  5
34
102
{ACAD_REACTORS
330
2A
102
}
330
2A
100
AcDbProxyObject
 90
      499
 91
      501
 93
      500
310
4290DBDB98D95C1D1D585B10940D028333333333333E33F0000000000000F90107902409070040501000000000018199010841D405064090740C02480A0340
1001
ACAD
1000
AcDbSavedByObjectVersion
1070
     0
  0
ACAD_PROXY_OBJECT
  5
35
102
{ACAD_REACTORS
330
2A
102
}
330
2A
100
AcDbProxyObject
 90
      499
 91
      501
 93
      412
310
40D11A5B50B409028333333333333E33F0000000000000F9010790141107004050150841D405064090741402480A02677FFFFFD0
1001
ACAD
1000
AcDbSavedByObjectVersion
1070
     0
  0
ACAD_PROXY_OBJECT
  5
3D
102
{ACAD_REACTORS
330
2A
102
}
330
2A
100
AcDbProxyObject
 90
      499
 91
      501
 93
      452
310
43115919D950DBDB1BDC93D999916409028333333333333E33F0000000000000F9010790141107004050150841D405064090741402480A0350
1001
ACAD
1000
AcDbSavedByObjectVersion
1070
     0
  0
ACAD_PROXY_OBJECT
  5
39
102
{ACAD_REACTORS
330
2A
102
}
330
2A
100
AcDbProxyObject
 90
      499
 91
      501
 93
      444
310
42D19858D95C185D1D195C9B90F409028333333333333E33F0000000000000F9010790141107004050150841D405064090741402480A0350
1001
ACAD
1000
AcDbSavedByObjectVersion
1070
     0
  0
ACAD_PROXY_OBJECT
  5
2B
102
{ACAD_REACTORS
330
2A
102
}
330
2A
100
AcDbProxyObject
 90
      499
 91
      501
 93
      380
310
41119B185D240901404333333333333E33F0000000000000F9010740A907004050150841D405064090741402480A1B50
1001
ACAD
1000
AcDbSavedByObjectVersion
1070
     0
  0
ACAD_PROXY_OBJECT
  5
2C
102
{ACAD_REACTORS
330
2A
102
}
330
2A
100
AcDbProxyObject
 90
      499
 91
      501
 93
      468
310
43519B185D15DA5D1A115919D95CD0140901404333333333333E33F0000000000000F90107409019070040501600405405064090741402480A1B50
1001
ACAD
1000
AcDbSavedByObjectVersion
1070
     0
  0
ACAD_PROXY_OBJECT
  5
2D
102
{ACAD_REACTORS
330
2A
102
}
330
2A
100
AcDbProxyObject
 90
      499
 91
      501
 93
      404
310
41D1DBDD5C985D5910240902404333333333333E33F0000000000000F9010740A9070040501641D405064090741402480A1B50
1001
ACAD
1000
AcDbSavedByObjectVersion
1070
     0
  0
ACAD_PROXY_OBJECT
  5
2E
102
{ACAD_REACTORS
330
2A
102
}
330
2A
100
AcDbProxyObject
 90
      499
 91
      501
 93
      492
310
4411DBDD5C985D5915DA5D1A115919D95CD0340902404333333333333E33F0000000000000F90107409019070040501600405405064090741402480A1B50
1001
ACAD
1000
AcDbSavedByObjectVersion
1070
     0
  0
ACAD_PROXY_OBJECT
  5
31
102
{ACAD_REACTORS
330
2A
102
}
330
2A
100
AcDbProxyObject
 90
      499
 91
      501
 93
      476
310
41921A5919195B90640502408333333333333E33F0000000000000F901079024090700405020000000000001110200405405064090740C02480A0340
1001
ACAD
1000
AcDbSavedByObjectVersion
1070
     0
  0
ACAD_PROXY_OBJECT
  5
3B
102
{ACAD_REACTORS
330
2A
102
}
330
2A
100
AcDbProxyObject
 90
      499
 91
      501
 93
      428
310
42529A5D1D195C93D999914409028333333333333E33F0000000000000F9010790141107004050150A41D405064090741402480A0350
1001
ACAD
1000
AcDbSavedByObjectVersion
1070
     0
  0
ACAD_PROXY_OBJECT
  5
38
102
{ACAD_REACTORS
330
2A
102
}
330
2A
100
AcDbProxyObject
 90
      499
 91
      501
 93
      444
310
42D31A5B995C185D1D195C9B90E409028333333333333E33F0000000000000F9010790141107004050750841D405064090741402483A0350
1001
ACAD
1000
AcDbSavedByObjectVersion
1070
     0
  0
ACAD_PROXY_OBJECT
  5
3C
102
{ACAD_REACTORS
330
2A
102
}
330
2A
100
AcDbProxyObject
 90
      499
 91
      501
 93
      444
310
42D3DD995C9A185B99D3D999915409028333333333333E33F0000000000000F9010790141107004050150941D405064090741402480A0350
1001
ACAD
1000
AcDbSavedByObjectVersion
1070
     0
  0
ACAD_PROXY_OBJECT
  5
33
102
{ACAD_REACTORS
330
2A
102
}
330
2A
100
AcDbProxyObject
 90
      499
 91
      501
 93
      428
310
425499585B1A5CDD1A58D08409038333333333333E33F0000000000000F9010740A907004050150800405405064090740C02480A1B40
1001
ACAD
1000
AcDbSavedByObjectVersion
1070
     0
  0
ACAD_PROXY_OBJECT
  5
42
102
{ACAD_REACTORS
330
2A
102
}
330
2A
100
AcDbProxyObject
 90
      499
 91
      501
 93
      420
310
4194DA1859195911B40902404333333333333E33F0000000000000F9010740A41107004050150800405405064090840C02480A0B40
1001
ACAD
1000
AcDbSavedByObjectVersion
1070
     0
  0
ACAD_PROXY_OBJECT
  5
41
102
{ACAD_REACTORS
330
2A
102
}
330
2A
100
AcDbProxyObject
 90
      499
 91
      501
 93
      516
310
4454DA18591959081DDA5D1A08195919D95CD1A40902404333333333333E33F0000000000000F901074090142907004050250800405405064090740C02480A0B40
1001
ACAD
1000
AcDbSavedByObjectVersion
1070
     0
  0
ACAD_PROXY_OBJECT
  5
3E
102
{ACAD_REACTORS
330
2A
102
}
330
2A
100
AcDbProxyObject
 90
      499
 91
      501
 93
      532
310
4394DA1859195CC81BD98811DC985E5174090240C333333333333E33F0000000000000F901079024090741D01000000000000111010841D405064090740C02480A0340
1001
ACAD
1000
AcDbSavedByObjectVersion
1070
     0
  0
ACAD_PROXY_OBJECT
  5
3F
102
{ACAD_REACTORS
330
2A
102
}
330
2A
100
AcDbProxyObject
 90
      499
 91
      501
 93
      476
310
41D4DAD95D18DA1E51840502408333333333333E33F0000000000000F901079024090741D01000000000000111010B41D405064090741802480A0340
1001
ACAD
1000
AcDbSavedByObjectVersion
1070
     0
  0
ACAD_PROXY_OBJECT
  5
37
102
{ACAD_REACTORS
330
2A
102
}
330
2A
100
AcDbProxyObject
 90
      499
 91
      501
 93
      412
310
41D51A1A58DAD95B90D409028333333333333E33F0000000000000F9010790141107004050150C41D405064090741402480A0350
1001
ACAD
1000
AcDbSavedByObjectVersion
1070
     0
  0
ACAD_PROXY_OBJECT
  5
30
102
{ACAD_REACTORS
330
2A
102
}
330
2A
100
AcDbProxyObject
 90
      499
 91
      501
 93
      420
310
4255DA5C99599C985B595059028333333333333E33F0000000000000F90107901411070040501600405405064090740C02480A0340
1001
ACAD
1000
AcDbSavedByObjectVersion
1070
     0
  0
ACAD_PROXY_OBJECT
  5
40
102
{ACAD_REACTORS
330
2A
102
}
330
2A
100
AcDbProxyObject
 90
      499
 91
      501
 93
      404
310
41560B54985E51940902404000000000000E03F0000000000000F9010740501907004050150841D405064090740C02480A1B40
1001
ACAD
1000
AcDbSavedByObjectVersion
1070
     0
  0
XRECORD
  5
266
102
{ACAD_REACTORS
330
25C
102
}
330
25C
100
AcDbXrecord
340
0
  0
XRECORD
  5
265
102
{ACAD_REACTORS
330
25C
102
}
330
25C
100
AcDbXrecord
 90
        0
  0
XRECORD
  5
27C
102
{ACAD_REACTORS
330
25C
102
}
330
25C
100
AcDbXrecord
1000
DSTYLE
1002
{
1070
   179
 70
     1
1070
   285
 70
     7
1070
   176
 70
     7
1070
   177
 70
     7
1070
   178
 70
     7
1070
   271
 70
     3
1070
    44
 40
0.08
1070
   371
 70
    13
1070
   372
 70
    13
1070
   272
 70
     3
1070
   340
340
72
1070
   140
 40
0.12
1070
   284
 70
     7
1070
   288
 70
     1
1070
    78
 70
     7
1070
    90
 70
     1
1002
}
  0
XRECORD
  5
267
102
{ACAD_REACTORS
330
25C
102
}
330
25C
100
AcDbXrecord
  1
{337433f4-78b9-3370-3574-746575b37471}
  0
XRECORD
  5
25F
102
{ACAD_REACTORS
330
25C
102
}
330
25C
100
AcDbXrecord
  1

  0
XRECORD
  5
264
102
{ACAD_REACTORS
330
25C
102
}
330
25C
100
AcDbXrecord
 90
        1
  0
XRECORD
  5
261
102
{ACAD_REACTORS
330
25C
102
}
330
25C
100
AcDbXrecord
340
1A
  0
XRECORD
  5
263
102
{ACAD_REACTORS
330
25C
102
}
330
25C
100
AcDbXrecord
 90
    10269
  0
XRECORD
  5
262
102
{ACAD_REACTORS
330
25C
102
}
330
25C
100
AcDbXrecord
340
19
  0
XRECORD
  5
269
102
{ACAD_REACTORS
330
25C
102
}
330
25C
100
AcDbXrecord
 40
0.0
  0
XRECORD
  5
26C
102
{ACAD_REACTORS
330
25C
102
}
330
25C
100
AcDbXrecord
340
0
  0
XRECORD
  5
272
102
{ACAD_REACTORS
330
25C
102
}
330
25C
100
AcDbXrecord
 10
0.0
 20
0.0
 30
0.0
  0
XRECORD
  5
26E
102
{ACAD_REACTORS
330
25C
102
}
330
25C
100
AcDbXrecord
 10
0.0
 20
0.0
 30
0.0
  0
XRECORD
  5
271
102
{ACAD_REACTORS
330
25C
102
}
330
25C
100
AcDbXrecord
 10
0.0
 20
0.0
 30
0.0
  0
XRECORD
  5
26F
102
{ACAD_REACTORS
330
25C
102
}
330
25C
100
AcDbXrecord
 10
0.0
 20
0.0
 30
0.0
  0
XRECORD
  5
270
102
{ACAD_REACTORS
330
25C
102
}
330
25C
100
AcDbXrecord
 10
0.0
 20
0.0
 30
0.0
  0
XRECORD
  5
26D
102
{ACAD_REACTORS
330
25C
102
}
330
25C
100
AcDbXrecord
 10
0.0
 20
0.0
 30
0.0
  0
XRECORD
  5
26A
102
{ACAD_REACTORS
330
25C
102
}
330
25C
100
AcDbXrecord
340
0
  0
XRECORD
  5
26B
102
{ACAD_REACTORS
330
25C
102
}
330
25C
100
AcDbXrecord
 70
     0
  0
XRECORD
  5
260
102
{ACAD_REACTORS
330
25C
102
}
330
25C
100
AcDbXrecord
  1

  0
XRECORD
  5
25D
102
{ACAD_REACTORS
330
25C
102
}
330
25C
100
AcDbXrecord
 90
        1
  0
XRECORD
  5
25E
102
{ACAD_REACTORS
330
25C
102
}
330
25C
100
AcDbXrecord
 90
       70
  0
XRECORD
  5
275
102
{ACAD_REACTORS
330
25C
102
}
330
25C
100
AcDbXrecord
340
0
  0
XRECORD
  5
27B
102
{ACAD_REACTORS
330
25C
102
}
330
25C
100
AcDbXrecord
 10
0.0
 20
0.0
 30
0.0
  0
XRECORD
  5
277
102
{ACAD_REACTORS
330
25C
102
}
330
25C
100
AcDbXrecord
 10
0.0
 20
0.0
 30
0.0
  0
XRECORD
  5
27A
102
{ACAD_REACTORS
330
25C
102
}
330
25C
100
AcDbXrecord
 10
0.0
 20
0.0
 30
0.0
  0
XRECORD
  5
278
102
{ACAD_REACTORS
330
25C
102
}
330
25C
100
AcDbXrecord
 10
0.0
 20
0.0
 30
0.0
  0
XRECORD
  5
279
102
{ACAD_REACTORS
330
25C
102
}
330
25C
100
AcDbXrecord
 10
0.0
 20
0.0
 30
0.0
  0
XRECORD
  5
276
102
{ACAD_REACTORS
330
25C
102
}
330
25C
100
AcDbXrecord
 10
0.0
 20
0.0
 30
0.0
  0
XRECORD
  5
273
102
{ACAD_REACTORS
330
25C
102
}
330
25C
100
AcDbXrecord
340
0
  0
XRECORD
  5
274
102
{ACAD_REACTORS
330
25C
102
}
330
25C
100
AcDbXrecord
 70
     0
  0
XRECORD
  5
268
102
{ACAD_REACTORS
330
25C
102
}
330
25C
100
AcDbXrecord
  1
{FAEB1C32-E019-11D5-929B-00C0DF256EC4}
  0
DICTIONARYVAR
  5
285
102
{ACAD_REACTORS
330
6E
102
}
330
6E
100
DictionaryVariables
280
     0
  1
1:1
  0
DICTIONARYVAR
  5
27E
102
{ACAD_REACTORS
330
6E
102
}
330
6E
100
DictionaryVariables
280
     0
  1
Standard
  0
DICTIONARYVAR
  5
27D
102
{ACAD_REACTORS
330
6E
102
}
330
6E
100
DictionaryVariables
280
     0
  1
Onshape-Standard
  0
DICTIONARYVAR
  5
281
102
{ACAD_REACTORS
330
6E
102
}
330
6E
100
DictionaryVariables
280
     0
  1
2
  0
DICTIONARYVAR
  5
282
102
{ACAD_REACTORS
330
6E
102
}
330
6E
100
DictionaryVariables
280
     0
  1
1
  0
DICTIONARYVAR
  5
286
102
{ACAD_REACTORS
330
6E
102
}
330
6E
100
DictionaryVariables
280
     0
  1
1
  0
DICTIONARYVAR
  5
6F
102
{ACAD_REACTORS
330
6E
102
}
330
6E
100
DictionaryVariables
280
     0
  1
0
  0
XRECORD
  5
20D
102
{ACAD_REACTORS
330
20C
102
}
330
20C
100
AcDbXrecord
 70
     1
  0
XRECORD
  5
210
102
{ACAD_REACTORS
330
20C
102
}
330
20C
100
AcDbXrecord
 90
        0
  0
XRECORD
  5
212
102
{ACAD_REACTORS
330
20C
102
}
330
20C
100
AcDbXrecord
 90
        0
  0
ACAD_PROXY_OBJECT
  5
213
102
{ACAD_REACTORS
330
20C
102
}
330
20C
100
AcDbProxyObject
 90
      499
 91
      510
 93
       34
310
40C8804000
  0
ACAD_PROXY_OBJECT
  5
211
102
{ACAD_REACTORS
330
20C
102
}
330
20C
100
AcDbProxyObject
 90
      499
 91
      510
 93
       34
310
40C8804040
  0
XRECORD
  5
20F
102
{ACAD_REACTORS
330
20C
102
}
330
20C
100
AcDbXrecord
 90
        0
  0
XRECORD
  5
20E
102
{ACAD_REACTORS
330
20C
102
}
330
20C
100
AcDbXrecord
 90
        0
  0
DICTIONARY
  5
289
330
45
100
AcDbDictionary
280
     1
  3
ACAD_XREC_ROUNDTRIP
360
28A
  0
DICTIONARY
  5
287
330
44
100
AcDbDictionary
280
     1
  3
ACAD_XREC_ROUNDTRIP
360
288
  0
DICTIONARY
  5
28B
330
46
100
AcDbDictionary
280
     1
  3
ACAD_XREC_ROUNDTRIP
360
28C
  0
XRECORD
  5
28A
102
{ACAD_REACTORS
330
289
102
}
330
289
100
AcDbXrecord
102
MATERIAL
148
0.0
149
0.0
149
0.0
 93
        0
 94
      127
282
     0
 72
     1
 77
     1
171
     1
175
     1
179
     1
273
     0
  0
XRECORD
  5
288
102
{ACAD_REACTORS
330
287
102
}
330
287
100
AcDbXrecord
102
MATERIAL
148
0.0
149
0.0
149
0.0
 93
        0
 94
      127
282
     0
 72
     1
 77
     1
171
     1
175
     1
179
     1
273
     0
  0
XRECORD
  5
28C
102
{ACAD_REACTORS
330
28B
102
}
330
28B
100
AcDbXrecord
102
MATERIAL
148
0.0
149
0.0
149
0.0
 93
        0
 94
      127
282
     0
 72
     1
 77
     1
171
     1
175
     1
179
     1
273
     0
  0
ENDSEC
  0
EOF
